Darkthrone - Lifeless Chords & Tabs

 

Lifeless Chords & Tabs

Darkthrone Chords & Tabs

Version: 1 Type: Tab 0 ratings
1 star 2 stars 3 stars 4 stars 5 stars
comments

Lifeless Tab

   
							"Lifeless" by Darkthrone
							Ravishing Grimness Album
							transcribed by Knut Farstad
							Guitarist, Torment Spirits
Downloaded exclusively from:
The Black Death... Black & Death Metal Page
http://theblackdeath.cjb.net

	Tuned to E (EADGBe)
[ Tab from: http://www.guitartabs.cc/tabs/d/darkthrone/lifeless_tab.html ]
		Riff A
------------------------------------------------------------------------------|
------------------------------------------------------------------------------|
------5--4--4-4-4-4-4-3-4-7-7-7-7-7-------5--4--4-4-4-4-4-3-4-5-5-5-5-5-5-----|
------3--2--2-2-2-2-2-1-2-5-5-5-5-5-------3--2--2-2-2-2-2-1-2-3-3-3-3-3-3-----|
--3----------------------------------3----------------------------------------|
--1----------------------------------1----------------------------------------|
                                                                              
		Riff B
-------------------------------------------------------------------------------
-------------------------------------------------------------------------------
-------------------------------------------------------------------------------
---5--8--7--7-7-7-7-7-7-7-7----------5---8--7--7-7-7-7-7-7-7-7-----------------
---5--8--7--7-7-7-7-7-7-7-7--7b-(8)--5---8--7--7-7-7-7-7-7-7-7-----------------
---3--6--5--5-5-5-5-5-5-5-5----------3---6--5--5-5-5-5-5-5-5-5--8-8-8-8-8-8----
                                                                              
															1st ending
--------------------------------------------|---------------------------------|
------------------------------------------------------------------------------|
--------------------------------------------|---------------------------------|
--5--8--7--7-7-7-7-7-7-7-7-7----------------|--5--8---------------------------|
--5--8--7--7-7-7-7-7-7-7-7-7--8-8-8-8-8--8-----5--8---------------------------|
--3--6--5--5-5-5-5-5-5-5-5-5----------------|--3--6--5--5-5-5-5-5-5-5-5-5--7b-|
                                                                              
	2nd ending
-----------------|
-----------------|
-----------------|
---5--8--7-------|
---5--8--7-------|
---3--6--5-------|
                                                                              
		Riff C
-----------------------------------------------------------
-----------------------------------------------------------
-----------------------------------------------------------
---7---7---7---7---7-----------7---7---77---7---7---7--9b--
---7---7---7---7---7-----------7---7---77---7---7---7--7b--
---5---5---5---5---5---3--4~~--5---5---55---5---5---5------
Comments