Darkthrone - In Honour Of Thy Name Chords & Tabs

 

In Honour Of Thy Name Chords & Tabs

Darkthrone Chords & Tabs

Version: 1 Type: Tab 0 ratings
1 star 2 stars 3 stars 4 stars 5 stars
comments

In Honour Of Thy Name Tab

Artist: Dark thone
Album: Hate Them
Song:  In Honour Of Thy Name
Transcribed by: Alvaro Ramirez
Email me for any comments or corrections:lazyguitarist@gmail.com
Tune guitars to Eb


.  - palm mute           /  - slide up to     ah - Artificial harmonics
\  - slide down to       ~  - vibrato
h  - hammer on           b  - Bend
p  - pull off            Suffixes for bend
t  - tap                 f  - full bend    h - half bend
ph - pinched harmonic    q  - quarter bend t - tap bend
*  - see comment         ^  - Hold bend    r release bend
x  - Staccato            ~  - vibrato bend
,  - slight palm mute    () - ghost note, sustained note
"  - tremolo note        <> - Trill



Riff 1
|------------|   |-----------------|
|------------|   |-----------------|
|------------|   |-----------------|
|-5-----5--3-|7x |-6-6-------66666-|
|-3--5--3--1-|   |-4-4--6-6--44444-|
|----3-------|   |------4-4--------|

Repeat 
Riff 1 3x

Riff 2
|------------|   |------------------------|
|------------|   |------------------------|
|------------|   |------------------------|
|-5-----5--3-|7x |-6-6-------666666666666-|
|-3--5--3--1-|   |-4-4--6-6--444444444444-|
|----3-------|   |------4-4---------------|
[ Tab from: http://www.guitartabs.cc/tabs/d/darkthrone/in_honour_of_thy_name_tab.html ]
Riff 3
|-----------------------------------|
|-----------------------------------|
|-----------------------------------|
|-3-5-3-5-3-5-3-5--5-6-6-6--5-6-6-6-|
|-1-3-1-3-1-3-1-3--3-4-4-4--3-4-4-4-|
|-----------------------------------|

Riff 4
|-----------------------------------|
|-----------------------------------|
|-----------------------------------|
|-3-5-3-5-3-5-3-5--5-6-6-6--6-7-7-7-|
|-1-3-1-3-1-3-1-3--3-4-4-4--4-5-5-5-|
|-----------------------------------|

Repeat
Riff 3

Riff 5
|---------------------------|
|---------------------------|
|---------------------------|
|-3-5-3-5-3-5-3-5-----------|
|-1-3-1-3-1-3-1-3--5-4--4-3-|
|------------------3-2--2-1-|

Repeat
Riff 3
Riff 4
Riff 3

Riff 6
|----------------------------------|
|----------------------------------|
|----------------------------------|
|-3-5-3-5-3-5-3-5--5-6-6-6--888888-|
|-1-3-1-3-1-3-1-3--3-4-4-4--666666-|
|----------------------------------|

Riff 7
|---------------------------------|
|---------------------------------|
|---------------------------------|
|---------------------------------|8x
|-3-3-3-3-3-3-3-3-6-7-4-6-2-2-2-4-|
|-1-1-1-1-1-1-1-1-4-5-2-4-0-0-0-2-|

Repeat
Riff 3
Riff 4
Riff 3 
Riff 5
Riff 3 
Riff 4
Riff 3
Riff 6

Repeat 
Riff 7 8x
Riff 1 many times.

The end.
Comments