Darkthrone - Hans Siste Vinter Chords & Tabs

 

Hans Siste Vinter Chords & Tabs

Darkthrone Chords & Tabs

Version: 1 Type: Tab 0 ratings
1 star 2 stars 3 stars 4 stars 5 stars
comments

Hans Siste Vinter Tab

Dans Siste Vinter - DarkThrone
Trascription by : Ugo Gasparri
E-Mail address :  ugo_er_mejo@geocities.com
 
This Tablature was created with TabExpert V.1.0.00 by Ugo Gasparri
E-|---------------------------------------------------------------------
B-|---------------------------------------------------------------------
G-|---------------------------------------------------------------------
D-|-----4--5--4---------------2-----------------------------------------
A-|--2---------------5--4--5--------------------------------------------
E-|-------------2--3----------------------------------------------------
 
*   All notes are tremolo-picked
[ Tab from: http://www.guitartabs.cc/tabs/d/darkthrone/hans_siste_vinter_tab.html ]
E-|---------------------------------------------------------------------
B-|---------------------------------------------------------------------
G-|---------------------------------------------------------------------
D-|-----2--------------2-------------2-------------2--------4-----------
A-|--------5--4-----------5--4----------5--4----------5--4--------------
E-|--3-----------5--3-----------3--5----------5--3----------------------
 
*   All tremolo picking,repeat this only one time


Yeah that's really simple but really awesome!!
Black metal rules!

Visit the death/black tab group on 
http://www.geocities.com/SunsetStrip/Stage/1588

Ugo Gasparri
ugo_er_mejo@geocities.com
Comments