Darkness - Stuck In A Rut Chords & Tabs

 

Stuck In A Rut Chords & Tabs

Darkness Chords & Tabs

Version: 2 Type: Tab 0 ratings
1 star 2 stars 3 stars 4 stars 5 stars
comments

Stuck In A Rut Tab

The Darkness - Stuck In A Rut


                  Justin & Dan Hawkins, Frankie Poullain, Ed Graham
This is the whole song, its tabbed on the two guitars, like it should be, so ther's
constantly a rhythm, and if u want, u can jus play the lead, but u'll need 2 switch
from the 2 guitars 4 the solos and all. if u want the bass tab of this song email me @
Men_what_do_rock_baby@hotmail.com i dont do drum tabs tho



Guitar 1


E||------|---------------------------|---------------------------|
B||------|---------------------------|---------------------------|
G||------|-------------------------2-|---2-2-------------------2-|
D||------|--------2-----------2------|--------2-----------2------|
A||------|--0--0--0--0--0--0--0--0---|--------0--0--0--0--0--0---|
E||------|---------------------------|---------------------------|


---------------------------|---------------------------|
---------------------------|---------------------------|
---2-2-------------------2-|---2-2-------------------2-|
--------2-----------2------|--------2-----------2------|
--------0--0--0--0--0--0---|--------0--0--0--0--0--0---|
---------------------------|---------------------------|


---------------------------|---------------------------|
---------------------------|---------------------------|
---2-2--2----------------2-|---2-2--2-----------2----2-|
--------2-----------2------|--------2-----------2------|
--------0--0--0--0--0--0---|--------0--0--0--0--0--0---|
---------------------------|---------------------------|


---------------------------|------------------------|
---------------------------|------------------------|
---2-2--2----------------2-|---2-2--------2----0----|
--------2-----------2------|--------2-----0----0----|
--------0--0--0--0--0--0---|--------0--0--0----x----|
---------------------------|-------------------3----|


---------------------------|---------------------------|
---------------------------|---------------------------|
---2-2-------------------2-|---2-2--2----------------2-|
--------------------2------|--------2-----------2------|
--------0--0--0--0--0--0---|--------0--0--0--0--0--0---|
---------------------------|---------------------------|


---------------------------|-------------------------|
---------------------------|-------------------------|
---2-2--2----------------2-|---2-2--2----------------|
--------2-----------2------|--------2-----------2----|
--------0--0--0--0--0--0---|--------0--0--0--0--0----|
---------------------------|-------------------------|


--------------------------|-------------------------|--------------------------|
--------------------------|-----------------3--3----|--------------------------|
--2----2------------------|--2----2---------2--2----|--2----2------------------|
--0----0------------------|--2----2---------0--0----|--0----0------------------|
--0----0------------------|--0----0--3h0h3----------|--0----0------------------|
----------0h2--2-3--3-4---|-------------------------|----------0h2--2-3--3-4---|


----------------------------|--------------------------|
--------------------3--3----|--3----3------------------|
--2-----2h0---------2--2----|--2----2------------------|
--2-----------------0--0----|--0----0------------------|
--0---0-----3h0h3h0---------|--0----0------------------|
----------------------------|----------0h2--2-3--3-4---|


-------------------------|-------------------------|--------------------------|
-----------------3--3----|--3----------------------|--------------------------|
--2----2---------2--2----|--2----------------------|--2----5--5-5-5-5-7--7----|
--2----2---------0--0----|--0----------------------|--2----5--5-5-5-5-7--7----|
--0----0--3h0h3----------|--0----------------------|--0-----------------------|
-------------------------|---------0h2--2-3--3-4---|--------------------------|


----------------------|------------------------|----------------------|
----------------------|------------------------|----------------------|
--2----0----2----0----|--2-----0--0-------0----|--2----0----2----0----|
--2----0----0----0----|--2-----0--0----2--0----|--2----0----0----0----|
--0----x----0----x----|--0-----x--x----0--x----|--0----x----0----x----|
-------3---------3----|------0-3--3-------3----|-------3---------3----|


------------------------|----------------------|------------------------|
------------------------|----------------------|------------------------|
--2---0-2--0----2--0----|--2----0----2----0----|--2----------------0----|
--2-----2--0----0--0----|--2----0----0----0----|--2-----2--2----2--0----|
--0-------------0--x----|--0----x----0----x----|--0-----0--0----0--x----|
-------------------3----|-------3---------3----|------0------------3----|


----------------------|------------------------|--------------------|
----------------------|------------------------|--------------------|
--2----0----2----0----|--2-----2--0-------0----|--2--------2--------|
--2----0----0----0----|--2-----2--0----2--0----|--2--------2--------|
--0----x----0----x----|--0-------------0--x----|--0--------0--------|
-------3---------3----|------0------------3----|--------------------|


-----------------------|-------------------------|-------------------------|
-----------------------|---------2---------------|-------------------------|
--2----2----2----2-----|---------x--x------------|---------x--x------------|
--2----2----2----2-----|--0---2-----x--2----2----|--0-1-2--x--x--2----2----|
--0----0----0----0--0--|-------------------------|------x------------------|
-----------------------|-------------------------|-------------------------|


-------------------------|-------------------------|-------------------------|
-------------------------|-------------------------|-------------------------|
---------x--x------------|---------x--x--2----0----|-------------------------|
--0-1-2--x--x--2----2----|--0-1-2--x--x--0----0----|--2----2--2--2--2--2-----|
------x------------------|------x--------0----x----|--0----0--0--0--0--0---0-|
-------------------------|--------------------3----|-------------------------|


-------------------------|-------------------------|--------------------|
-------------------------|-------------------------|--------------------|
-----2--x--x--2----2-----|-----2--x--x--2----2-----|-----2--------------|
--0--2--x--x--2----2-----|--0--2--x--x--2----2-----|--0--2--------------|
-----------------------0-|-----------------------0-|--------------------|
-------------------------|-------------------------|--------------------|


--------------------------|-------------------------|--------------------------|
--------------------------|-----------------3--3----|--------------------------|
--2----2------------------|--2----2---------2--2----|--2----2------------------|
--0----0------------------|--2----2---------0--0----|--0----0------------------|
--0----0------------------|--0----0--3h0h3----------|--0----0------------------|
----------0h2--2-3--3-4---|-------------------------|----------0h2--2-3--3-4---|


-----------------------------|--------------------------|
-----------------------------|--3----3------------------|
--2--------5------7h9h7------|--2----2------------------|
--2--------5------7-----9-7--|--0----0------------------|
--0----5h7----7h9------------|--0----0------------------|
-----------------------------|----------0h2--2-3--3-4---|


-------------------------|--------------------------|--------------------------|
-----------------3--3----|--3----3------------------|--------------------------|
--2----2---------2--2----|--2----2------------------|--2----5--5-5-5-5-7--7----|
--2----2---------0--0----|--0----0------------------|--2----5--5-5-5-5-7--7----|
--0----0--3h0h3----------|--0----0------------------|--0-----------------------|
-------------------------|----------0h2--2-3--3-4---|--------------------------|


----------------------|------------------------|----------------------|
----------------------|------------------------|----------------------|
--2----0----2----0----|--2-----0--0----2--0----|--2----0----2----0----|
--2----0----0----0----|--2-----0--0----2--0----|--2----0----0----0----|
--0----x----0----x----|--0-----x--x----0--x----|--0----x----0----x----|
-------3---------3----|------0-3--3-------3----|-------3---------3----|


------------------------|----------------------|------------------------|
------------------------|----------------------|------------------------|
--2---0-2--0----2--0----|--2----0----2----0----|--2----------------0----|
--2-----2--0----0--0----|--2----0----0----0----|--2-----2--2----2--0----|
--0-------------0--x----|--0----x----0----x----|--0-----0--0----0--x----|
-------------------3----|-------3---------3----|------0------------3----|


----------------------|------------------------|-------------------|
----------------------|------------------------|--3----------------|
--2----0----2----0----|--2-----2--0-------0----|--2----------------|
--2----0----0----0----|--2-----2--0----2--0----|--2----------------|
--0----x----0----x----|--0-------------0--x----|--0----------------|
-------3---------3----|------0------------3----|-------------------|


-------------------|--8--8--8/-----------|--1--1--1------------|
--2----------------|--8--8--8/-----------|--1--1--1------------|
--2----------------|--9--9--9/-----------|--2--2--2------------|
--2----------------|---------------------|---------------------|
--0----------------|---------------------|---------------------|
-------------------|---------------------|---------------------|


--2----------------|--5-5-5--------------|--8--8--8------------|
--3----------------|--5-5-5--------------|--8--8--8------------|
--2----------------|--6-6-6--------------|--9--9--9------------|
--4----------------|---------------------|---------------------|
-------------------|---------------------|---------------------|
-------------------|---------------------|---------------------|


--1--1--1------------|--------------------|-------------------|
--1--1--1------------|--------------------|-------------------|
--2--2--2------------|--10----------------|--9----------------|
---------------------|--10----------------|--9----------------|
---------------------|--8-----------------|--7----------------|
---------------------|--8-----------------|--7----------------|


-------------------|--------------------------|--------------------------|
-------------------|--------------------------|--------------------------|
--8----------------|--7--7--7--7--7--7--7--7--|--7--7--7--7--7--7--7-----|
--8----------------|--7--7--7--7--7--7--7--7--|--7--7--7--7--7--7--7-----|
--6----------------|--5--5--5--5--5--5--5--5--|--5--5--5--5--5--5--5-----|
--6----------------|--5--5--5--5--5--5--5--5--|--5--5--5--5--5--5--5--0--|


----------------------|------------------------|----------------------|
----------------------|------------------------|----------------------|
--2----0----2----0----|--2---0-2--0----2--0----|--2----0----2----0----|
--2----0----0----0----|--2-----2--0----0--0----|--2----0----0----0----|
--0----x----0----x----|--0-----0--x----0--x----|--0----x----0----x----|
-------3---------3----|-----------3-------3----|-------3---------3----|


------------------------|----------------------|------------------------|
------------------------|----------------------|------------------------|
--2---0-2--0----2--0----|--2----0----2----0----|--2---0-2--0----2--0----|
--2-----2--0----0--0----|--2----0----0----0----|--2-----2--0----0--0----|
--0-----0--x----0--x----|--0----x----0----x----|--0-----0--x----0--x----|
-----------3-------3----|-------3---------3----|-----------3-------3----|


----------------------|----------------------|--------------------------------|
----------------------|----------------------|--------------------------------|
--2----0----2----0----|--2----0------2--0----|--------------------------------|
--2----0----0----0----|--2----0------0--0----|--0-----0-----------------------|
--0----x----0----x----|--0----x------0--x----|----3h0---3h0-------------------|
-------3---------3----|-------3---------3----|--------------0-2-2-2-3--3-4--4-|


----------------------------|--------------------------------|
----------------------------|--------------------------------|
--2-----------------2--2----|--------------------------------|
--2-----------------0--0----|--0-----0-----------------------|
--0---0-3-0-3-0-3-3---------|----3h0---3h0-------------------|
----------------------------|--------------0-2-2-2-3--3-4--4-|


----------------------------|-----------------------|
----------------------------|--3--------------------|
--2-----------------2--2----|--2--------------------|
--2-----------------0--0----|--0-----5---2---3---4--|
--0---0-3-0-3-0-3-3---------|-----------------------|
----------------------------|-----------------------|


----------------------------|--------------------------------|
------3-6h3-6h3-6--7-7-7----|--------------------------------|
--5-------------------------|--------------------------------|
----------------------------|--0-----0-----------------------|
----------------------------|----3h0---3h0-------------------|
----------------------------|--------------0-2-2-2-3--3-4--4-|


-----------------------------|----------------------|------------------------|
-----------------------------|----------------------|------------------------|
--2-----------------2--------|--2----0----2----0----|--2-----0--0----2--0----|
--2-----------------0--3h0---|--2----0----0----0----|--2-----0--0----2--0----|
--0---0-3-0-3-0-3-3----------|--0----x----0----x----|--0-----x--x----0--x----|
-----------------------------|-------3---------3----|------0-3--3-------3----|


----------------------|------------------------|----------------------|
----------------------|------------------------|----------------------|
--2----0----2----0----|--2---0-2--0----2--0----|--2----0----2----0----|
--2----0----0----0----|--2-----2--0----0--0----|--2----0----0----0----|
--0----x----0----x----|--0-------------0--x----|--0----x----0----x----|
-------3---------3----|-------------------3----|-------3---------3----|


------------------------|----------------------|------------------------|
------------------------|----------------------|------------------------|
--2-----0--0----2--0----|--2----0----2----0----|--2---0-2--0----2--0----|
--2-----0--0----2--0----|--2----0----0----0----|--2-----2--0----0--0----|
--0-----x--x----0--x----|--0----x----0----x----|--0-------------0--x----|
------0-3--3-------3----|-------3---------3----|-------------------3----|


----------------------|------------------------|----------------------|
----------------------|------------------------|----------------------|
--2----0----2----0----|--2---2-2--0----2--0----|--2----0----2----0----|
--2----0----0----0----|--2---2-2--0----0--0----|--2----0----0----0----|
--0----x----0----x----|--0-------------0--x----|--0----x----0----x----|
-------3---------3----|-------------------3----|-------3---------3----|

[ Tab from: http://www.guitartabs.cc/tabs/d/darkness/stuck_in_a_rut_tab_ver_2.html ]
------------------------|----------------------|------------------------|
------------------------|----------------------|------------------------|
--2---2-2--0----2--0----|--2----0----2----0----|--2---0-2--0----2--0----|
--2---2-2--0----0--0----|--2----0----0----0----|--2-----2--0----0--0----|
--0-------------0--x----|--0----x----0----x----|--0-------------0--x----|
-------------------3----|-------3---------3----|-------------------3----|


----------------------|------------------------|------------------|
----------------------|------------------------|------------------|
--2----0----2----0----|--2---0-2--0----2--0----|------------------|
--2----0----0----0----|--2-----2--0----0--0----|------------------|
--0----x----0----x----|--0-------------0--x----|------------------|
-------3---------3----|-------------------3----|------------------|


------------------|-------------------|------------------|------------------|
------------------|-------------------|------------------|------------------|
------------------|--------------2----|------------------|------------------|
------------------|--------------2----|------------------|------------------|
------------------|--------------0----|------------------|------------------|
------------------|-------------------|------------------|------------------|


-------------------|------------------|-------------------|--------||
----------3--------|------------------|-------------------|--------||
----------0--------|------------------|--------2----------|--------||
----------0--------|------------------|--------2----------|--------||
----------x--------|------------------|--------0----------|--------||
----------3--------|------------------|-------------------|--------||




Guitar 2

E||------|-------------------|------------------|-------------------|
B||------|-------------------|------------------|-------------------|
G||------|--2----------------|------------------|--3----------------|
D||------|--2----------------|------------------|--3----------------|
A||------|--0----------------|------------------|--1----------------|
E||------|-------------------|------------------|-------------------|


------------------|-------------------|------------------|------------------|
------------------|-------------------|------------------|------------------|
------------------|--2----------------|------------------|------------------|
------------------|--2----------------|------------------|------------------|
------------------|--0----------------|------------------|------------------|
------------------|-------------------|------------------|------------------|


--------------------|-------------------|------------------|------------------|
--------------------|-------------------|------------------|------------------|
----------2----0----|--2----------------|------------------|------------------|
----------0----0----|--2----------------|------------------|------------------|
----------0----x----|--0----------------|------------------|------------------|
---------------3----|-------------------|------------------|------------------|


------------------|-------------------|---------------------|
------------------|-------------------|---------------------|
------------------|--2----------------|--2----------2--2----|
------------------|--0----------------|--2----------0--0----|
------------------|--0----------------|--0------------------|
------------------|-------------------|---------------------|


-------------------|---------------------|-------------------|
-------------------|---------------------|-------------------|
--2----------------|--2----------2--2----|--2----------------|
--0----------------|--2----------0--0----|--0----------------|
--0----------------|--0------------------|--0----------------|
-------------------|---------------------|-------------------|


---------------------|-------------------|--------------------|
---------------------|-------------------|--------------------|
--2----------2--2----|--2----------------|--2------------2----|
--2----------0--0----|--0----------------|--2------------0----|
--0------------------|--0----------------|--0------------0----|
---------------------|-------------------|--------------------|


----------------------|--------------------|----------------------|
----------------------|--------------------|----------------------|
--2----0----2----0----|--2------------0----|--2----0----2----0----|
--2----0----0----0----|--2------------0----|--2----0----0----0----|
--0----x----0----x----|--0------------x----|--0----x----0----x----|
-------3---------3----|---------------3----|-------3---------3----|


--------------------|----------------------|--------------------|
--------------------|----------------------|--------------------|
--2------------0----|--2----0----2----0----|--2------------0----|
--2------------0----|--2----0----0----0----|--2------------0----|
--0------------x----|--0----x----0----x----|--0------------x----|
---------------3----|-------3---------3----|---------------3----|


----------------------|--------------------|------------------|
----------------------|--------------------|------------------|
--2----0----2----0----|--2------------0----|------------------|
--2----0----0----0----|--2------------0----|------------------|
--0----x----0----x----|--0------------x----|------------------|
-------3---------3----|---------------3----|------------------|


------------------|------------------|------------------|------------------|
------------------|------------------|------------------|------------------|
------------------|------------------|------------------|------------------|
------------------|------------------|------------------|------------------|
------------------|------------------|------------------|------------------|
------------------|------------------|------------------|------------------|


--------------------|-------------------|------------------|------------------|
--------------------|-------------------|------------------|------------------|
----------2----0----|--2----------------|------------------|------------------|
----------0----0----|--2----------------|------------------|------------------|
----------0----x----|--0----------------|------------------|------------------|
---------------3----|-------------------|------------------|------------------|


--5--3-0----------------------|-------------------|---------------------|
---------3-0-2-0--------------|-------------------|---------------------|
-----------------2-0----------|--2----------------|-------------2--2----|
---------------------2-0------|--0----------------|--2----------0--0----|
------------------------------|-------------------|--0------------------|
-------------------------3b---|-------------------|---------------------|


-------------------|---------------------|-------------------|
-------------------|---------------------|-------------------|
--2----------------|-------------2--2----|--2----------------|
--0----------------|--2----------0--0----|--0----------------|
-------------------|--0------------------|-------------------|
-------------------|---------------------|-------------------|


---------------------|-------------------|--------------------|
---------------------|-------------------|--------------------|
-------------2--2----|--2----------------|--2------------2----|
--2----------0--0----|--0----------------|--2------------0----|
--0------------------|-------------------|--0------------0----|
---------------------|-------------------|--------------------|


----------------------|--------------------|----------------------|
----------------------|--------------------|----------------------|
--2----0----2----0----|--2------------0----|--2----0----2----0----|
--2----0----0----0----|--2------------0----|--2----0----0----0----|
--0----x----0----x----|--0------------x----|--0----x----0----x----|
-------3---------3----|---------------3----|-------3---------3----|


--------------------|----------------------|--------------------|
--------------------|----------------------|--------------------|
--2------------0----|--2----0----2----0----|--2------------0----|
--2------------0----|--2----0----0----0----|--2------------0----|
--0------------x----|--0----x----0----x----|--0------------x----|
---------------3----|-------3---------3----|---------------3----|


----------------------|--------------------|-------------------|
----------------------|--------------------|-------------------|
--2----0----2----0----|--2-----------------|-------------------|
--2----0----0----0----|--2------------0----|--2----------------|
--0----x----0----x----|--0------------x----|--0----------------|
-------3---------3----|---------------3----|-------------------|


------------------|------------------|------------------|-------------------|
------------------|------------------|------------------|-------------------|
------------------|------------------|------------------|--2~---------------|
------------------|------------------|------------------|--0----------------|
------------------|------------------|------------------|--0----------------|
------------------|------------------|------------------|-------------------|


------------------|------------------|------------------|--------------------|
------------------|------------------|------------------|--------------------|
------------------|------------------|------------------|--------------------|
------------------|------------------|------------------|--10----------------|
------------------|------------------|------------------|--8-----------------|
------------------|------------------|------------------|--8-----------------|


-------------------|-------------------|-------------------|------------------|
-------------------|-------------------|-------------------|------------------|
-------------------|-------------------|-------------------|------------------|
--9----------------|--8----------------|--7----------------|------------------|
--7----------------|--6----------------|--5----------------|------------------|
--7----------------|--6----------------|--5----------------|------------------|


--------------------|--------5-----7b---7r-5-----|---------------------------|
--------------------|------5-----------------8h5-|--8b---8r-5----------------|
------------------4-|--5-6-----------------------|------------7-5~---7r------|
--------------------|----------------------------|----------------------5----|
--------------------|----------------------------|-------------------------7-|
--3~----------------|----------------------------|---------------------------|


-------------------------|----------------------------------|
--7--5b----7--5b---------|--5-5-5-5-5-5-5-5-5-5-5-5-5-5-5-5-|
--7b-5b----7b-5b---------|--7b------7b------7b------7b------|
--------7--------7--7----|----------------------------------|
-------------------------|----------------------------------|
-------------------------|----------------------------------|


-------8-10r--8------------|--5-----------------------------|
--8-10----------10~--------|--5----8----7----7b---7----5----|
---------------------------|-------7----7---------7----5----|
---------------------------|--------------------------------|
---------------------------|--------------------------------|
---------------------------|--------------------------------|


--------------------|-------------------|----------|--------------------|
--------------------|-------------------|----------|--------------------|
--4r-------2~-------|--2----------------|----------|--2-----------------|
--------------------|--0----------------|----------|--0--------0--------|
--------------------|-------------------|----------|-----------x--------|
--------------------|-------------------|----------|-----------3--------|


-------------------|-----10--------------------|
-------------------|--7--------7~--8~--9~--10~-|
--2----------------|--7------7-----------------|
--2----------------|---------------------------|
-------------------|---------------------------|
-------------------|---------------------------|


--------------------------10-10-10~---|--------------------|-------------------|
--10---10-13h10-13h10-13--------------|--------------------|-------------------|
--------------------------------------|--2-----------------|--2----------------|
--------------------------------------|--0--------0--------|--2----------------|
--------------------------------------|-----------x--------|-------------------|
--------------------------------------|-----------3--------|-------------------|


----------------------|--------------------|----------------------|
----------------------|--------------------|----------------------|
--2----0----2----0----|--2------------0----|--2----0----2----0----|
--2----0----0----0----|--2------------0----|--2----0----0----0----|
--0----x----0----x----|--0------------x----|--0----x----0----x----|
-------3---------3----|---------------3----|-------3---------3----|


--------------------|----------------------|--------------------|
--------------------|----------------------|--------------------|
--2------------0----|--2----0----2----0----|--2------------0----|
--2------------0----|--2----0----0----0----|--2------------0----|
--0------------x----|--0----x----0----x----|--0------------x----|
---------------3----|-------3---------3----|---------------3----|


----------------------|--------------------|----------------------|
----------------------|--------------------|----------------------|
--2----0----2----0----|--2------------0----|--2----0----2----0----|
--2----0----0----0----|--2------------0----|--2----0----0----0----|
--0----x----0----x----|--0------------x----|--0----x----0----x----|
-------3---------3----|---------------3----|-------3---------3----|


--------------------|----------------------|--------------------|
--------------------|----------------------|--------------------|
--2------------0----|--2----0----2----0----|--2------------0----|
--2------------0----|--2----0----0----0----|--2------------0----|
--0------------x----|--0----x----0----x----|--0------------x----|
---------------3----|-------3---------3----|---------------3----|


----------------------|--------------------|----------------------|
----------------------|--------------------|----------------------|
--2----0----2----0----|--2------------0----|--2----0----2----0----|
--2----0----0----0----|--2------------0----|--2----0----0----0----|
--0----x----0----x----|--0------------x----|--0----x----0----x----|
-------3---------3----|---------------3----|-------3---------3----|


--------------------|------|------|-------------------|------------------|
--------------------|------|------|-------------------|------------------|
--2------------0----|------|------|--------------2----|------------------|
--2------------0----|------|------|--------------2----|------------------|
--0------------x----|------|------|--------------0----|------------------|
---------------3----|------|------|-------------------|------------------|


--5----5----5----5-------------|--------------------|
--7b---7b---7----7r-------5----|--------------------|
-------------------------------|--4r-------2~-------|
-------------------------------|--------------------|
-------------------------------|--------------------|
-------------------------------|--------------------|


--------------------------------|-------------------|--------||
--------------------------------|-------------------|--------||
--------------------------------|--------2----------|--------||
--4b---4b---4----4r-----2-------|--------2----------|--------||
---------------------------3b---|--------0----------|--------||
--------------------------------|-------------------|--------||
Comments