Darkness - Permission To Land Chords & Tabs

 

Permission To Land Chords & Tabs

Darkness Chords & Tabs

Version: 1 Type: Tab 0 ratings
1 star 2 stars 3 stars 4 stars 5 stars
comments

Permission To Land Tab

   
ALBUM: PERMISSION TO LAND
BAND: THE DARKNESS
TABBED BY: JOHN MAZURKIEWICZ

THIS HAS SONGS 1-5


1.BLACK SHUCK


E-----------------------------------------------
B-----------------------------------------------
G-----------------------------------------------
D----------------------------------------------
A-----------------------------------------------
E--3-0-0-0-0-0-3-0-0-0-0-0-5-0-0-0-0-0-7-5-3-0--



|--------------------------------------------2--
|--------------------------------------------3--
|--------------------------------------------2--
|-2-7--7-7-7-5--5--5-5-5-4--4--4-4-4------2--0--
|-2-7--7-7-7-5--5--5-5-5-4--4--4-4-4------20---
|-0-5--5-5-5-3--3--3-3-3-2--2--2-2-2------0-----


     G   Em
 (Black Shuck) Black Shuck
(Black Shuck) Black Shuck

  G      Em               A               D
(Black Shuck) That dog don't give a fuck
Black Shuck
(Black Shuck) Black Shuck
(Black Shuck) Black Shuck
(Black Shuck) That dog don't give a fuck



2. GET YOUR HANDS  OFF OF MY WOMAN


INTRO/CHORUS
E-------------------
B-------------------
G-------------------
D--7--------5------
A--5--8---3--3------
E------6---1--------

VERSE

e|--------------------------
B|--------------------------
G|--------------------------
D|--------------------------
A|-5-5-5-5-5-5-5-------3----
E|-------------------3-1----


PRE/CHORUS

e|--------------------------------
B|--------------------------------
G|--------------------------------
D|--------------------------------
A|--5-5-5-5-5-5-------------------
E|-----------------3-3-3-3-3-3-3--


e|--------------------------------
B|--------------------------------
G|--------------------------------
D|--------------------------------
A|--------------------------------
E|--0-1-2-3-4-5-6-----------------



3. GROWING ON ME

Intro 


E|---------5----------5------------------------------0-------
B|-------------3----------3----------------------3-----3-----
G|---2------------2----------2--------------2------2---------
D|---0------------------------------------0---0-----------0--
A|-------------------------------------4---------------------
D|-----------------------------------------------------------

Chorus

E|-------------------------
B|-------------------------
G|-------------------------
D|-------------------------
A|-------------------------
D|---4--5--7--0--9--0--7---

E|--------------------------------------------------------
B|--------------------------------------------------------
G|--------------------------------------------------------
D|--------------------------------------------------------
A|--------------------------------------------------------
D|--4-4-4-4--5-5-5-5--7-7-7-7--0-0-0-0--7--5-4-0-5-4-2--0






4. I BELIEVE IN A THING CALLED LOVE

INTRO/VERSES

E|----------------------------------------
B|----------------------------------------
G|----------------------------------------
D|-----2--4-4------4-4--------------------
A|--4--0--2-2--2--2-2-----------2--4--2---
D|--2-----------0-------4-5-4-5-----------

PRE-CHORUS

E|-------------------------
B|-------------------------
G|-------------------------
D|-------------------------
A|-9--4-4-4-4-4-4-4-4-4----
D|-7--2-2-2-2-2-2-2-2-2----

E|-------------------------
B|-------------------------
G|-------------------------
D|-------------------------
A|-9--4-4-4-4-4-4-4-4-4----
D|-7--2-2-2-2-2-2-2-2-2----

E|------------------------------------------
B|------------------------------------------
G|------------------------------------------
D|------------------------------------4-4-4-
A|-9--4-4-4-4-4-4-4-4-4--1-1-1-2-2-2--------
D|-7--2-2-2-2-2-2-2-2-2---------------------

CHORUS

E|-----------------------------
B|-----------------------------
G|-----------------------------
D|-----------------------------
A|-2-------------4------2-4-2--
D|-0-2-4-5-4-0-2-4-5-----------

SOLO 1

E|-12-14-12-14-12-12-12-16-17-16------------------------------
B|----------------------------------------17------------------
G|--------------------------------------------16--14-13--11-9-
D|------------------------------------------------------------
A|------------------------------------------------------------
D|------------------------------------------------------------


5. LOVE IS ONLY A FEELING

 G                  D                      A                         G
The first flush of youth was upon you when our eyes first met
And I knew that to you and into your life I had to get
I felt light-headed at the touch of this stranger's hand
An assault my defences systematically failed to withstand

'Cos you came at a time
When the pursuit of one true love in which to fall
Was the be all and end all


 B              G
Love is only a feeling

 D           A
(Drifting away)
When I'm in your arms I start believing
(It's here to stay)
But love is only a feeling
Anyway

The state of elation that this unison of hearts achieved
I had seen, I had touched, I had tasted and I truly believed

That the light of my life
Would tear a hole right through each cloud that scudded by
Just to beam on you and I

Love is only a feeling
(Drifting away)
When I'm in your arms I start believing
(It's here to stay)
But love is only a feeling
Anyway, anyway

Love is only a feeling
(Drifting away)
And we've got to stop ourselves believing
(It's here to stay)
'Cause love is only a feeling
Anyway.





6. GIVIN UP

INTRO / VERSE
[ Tab from: http://www.guitartabs.cc/tabs/d/darkness/permission_to_land_tab.html ]
e|----------------------------
B|----------------------------
G|----------------------------
D|--4-4-4-4-------------------
A|--2-2-2-2 ---------2--------
E|-------------2-4-6----------

PRE-CHORUS

e|---------------------
B|---------------------
G|---------4--4--------
D|---------4--4--------
A|--4--4--2--2---------
E|--2--2---------------

CHORUS

e|-------------------
B|-------------------
G|--4-4-4------4-4---
D|--4-4-4------4-4---
A|--2-2-2---4--2-2---
E|-----------2-------




7. STUCK IN A RUT


VERSE


     A                   D
e|-----------------------2---
B|--2--------------------3---
G|--2--------------------2---
D|--2------------------------
A|---------------------------
E|---------------------------

PRE-CHORUS


e---------------------------
b---------------------------
g--7-7------------5--7-7--
D--7-7-4-5-6-7--5--7-7--
A--5-5-4-5-6-7--3--5-5--
E-------2-3-4-5------------


CHORUS

     D     A    D    A     D     G
e|--2---------2---------2----3-------
B|--3---2----3---2-----3----3--------
G|--2---2----2---2-----2-------------
D|-------2--------2------------------
A|-----------------------------2-----
E|-----------------------------3-----



8. FRIDAY NIGHT



Intro:

E-----0--------------------------------
B--------5-4-0---------------5-5---4---
G--------------6-------------------6---
D--------------7--7-6-7-6-------------
A--------------------------------------
E--------------------------------------


Verse 1

(A) B
Hey you!
         G#m        A
Do you remember me
                             F#m
I used to sit next to you at school
      B                                   G#m       A
We indulged in all the extra-curricular activities
                         F#m
We weren't particularly cool


Chorus 1

      E
Oooh, Monday cycling
C#m
Tuesday gymnastics
A                   B
Dancing on a Friday night
      E
I got Bridge Club on Wednesday
C#m
Archery on Thursday
A                   B
Dancing on a Friday night

Verse 2

     B
Hey you!
               G#m          A
Could you ever fall for me....oooh
                   F#m
The way I fell for you
          B                               G#m     A
And do you dwell upon the thoughts that I occupy
                                  F#m
Or do you give yourself things to do

Chorus 2

     E
Oooh Monday rowing

C#m
Tuesday badminton
A                   B
Dancing on a Friday night
      E
I got ping pong on Wednesday
C#m
Needlework on Thursday
A                   B
Dancing on a Friday night

               E(Strums out to intro)
With you, with you




9. LOVE ON THE ROCKS WITH NO ICE



  E                                  A
You can't abide my showing fatigue
  E                                 A
When you come home just to relay
All the events that made your heart bleed
And the ones that ruined your day

 D         Dsus2	
We're not as close
             E
As everybody thinks
  D                  Dsus2
In the eye of the storm
   A          D           E
We keep each other warm


D                  A
Love on the rocks
  E                            D
You'd do anything for a quiet life
Love on the rocks
Love on the rocks with no ice
Love on the rocks
You'd do anything for a quiet life
Love on the rocks
Love on the rocks with no ice

So many issues we should address
'Cause our lives just don't correlate
All the emotions that we suppress
Bite our tongues until it's too late

We're not as close
As we used to be - you and me
In the eye of the storm
We keep each other warm

Love on the rocks
You'd do anything for a quiet life
Love on the rocks
Love on the rocks with no ice
Love on the rocks
You'd do anything for a quiet life
Love on the rocks
Love on the rocks with no ice

Love on the rocks
You'd do anything for a quiet life
Love on the rocks
Love on the rocks with no ice
Love on the rocks
You'd do anything for a quiet life
Love on the rocks
Love on the rocks with no ice

Love on the rocks with no ice


10. HOLDING MY OWN



Intro/Verse
e|--------------0------------------------0----------
b|--------3----------2-------------3----------3-----
g|-----2-----2----------3-------2-----2----------2--
d|--0-----------------------------------------------
a|---------------------------2----------------------
D|--------------------------------------------------
                               
|--------------0------------------------0--2--0-----
|--------3----------3----------------3--------------
|-----2-----2----------2----0-----0-----------------
|------------------------------0--------------------
|--0------------------------------------------------
|---------------------------------------------------

Chorus

e|--------------------------------------------------
b|--------------------------------------------------
g|--------------------------------------------------
d|--------------------------------------------------
a|-------5----------5-7-----------------------------
D|--9-7---7-5-9-7-----------------------------------

ROCK ON !
Comments