Darkness - One Way Ticket Chords & Tabs

 

One Way Ticket Chords & Tabs

Darkness Chords & Tabs

Version: 1 Type: Tab 0 ratings
1 star 2 stars 3 stars 4 stars 5 stars
comments

One Way Ticket Tab

                     .  .  .  .  .  .  .  .  .  .  .  .  .  .  .  .  .  .  .  .  Repeat 5x
e-----------------------------------------------------------------------------------|
b-----------------------------------------------------------------------------------|
g-------------------------------2-2---------------------------2-2-------------------|
d-----4-4-4--------6-6-6-----4-0-0--4-4-4--------6-6-6-----4-0-0--------------------|
a-----2-2-2--------4-4-4---2-2------2-2-2--------4-4-4---2-2------------------------|
e --------------------------0------------------------------0------------------------|
[ Tab from: http://www.guitartabs.cc/tabs/d/darkness/one_way_ticket_tab.html ]
before chorus
           .  .  .  .  .           .  .  .  .  .          .  .  .  .  .
e----------------------------------------------------------------------------------|
b----------------------------------------------------------------------------------|
g-----------2-------------2-----------2--------------------------------------------|
d----4------0---4---------0---4-------0--------------------------------------------|
a----2--------2-2-----------2-2---------2-7-6--4-----------------------------------|
e-------------0-------------0-----------0-5-4--2-----------------------------------|

chorus
e---------------------------------------------------------------------------------|
b---------------------------------------------------------------------------------|
g----------------------------------------------2-2--------------------------------|
d----------2--------4-4-4----4-------4--6--4--0-0--4--6--4------------------------|
a----------0-----0--2-2-2----2----0--2--4--2-------2--4--2------------------------|
e---0-2-4----4------------------4-------------------------------------------------|

I cant tab SITAR!
Comments