Darkness - Love On The Rocks With No Ice Chords & Tabs

 

Love On The Rocks With No Ice Chords & Tabs

Darkness Chords & Tabs

Version: 1 Type: Tab 0 ratings
1 star 2 stars 3 stars 4 stars 5 stars
comments

Love On The Rocks With No Ice Tab

-------------------------------------------------------------------------------
	       Love On The Rocks With No Ice - Darkness
-------------------------------------------------------------------------------

Tabbed by: Matthew Bostock
Email:slipknotbos@hotmail.com
Tuning: Normal E Tuning

Yo fellow cheese nobs. 2 people emailed me askin for this follow up ta ma first
'love on the rocks with no ice' tab... and here it is. No solo yet... but this is
still good.

/ = Slide Down
\ = Slide Up
^ = Bend Up
h = Hammer On
p = Pull Off

INTRO.... SLIGHT DISTORTION
e|--------------------------------------------------------------------------|
B|--------------------------0-----------------------------------------------|
G|-------0-------------------------------------0----------------------------|
D|--------------------0h2h4---4p2p0-2---------------------------------------|
A|-0h2h4---4p2p0-2--------------------0--0h2h4----4p2p0-2-------------------|
E|-----------------0--------------------------------------0-----------------|

INTRO.... SECOND BIT THINGY
e|-0-0-------0--0-----------------------------------------------------------|
B|--0-0-------0-------------------------------------------------------------|
G|------4/3-------3\4-------------------------------------------------------|
D|--------------------------------------------------------------------------|
A|--------------------------------------------------------------------------|
E|--------------------------------------------------------------------------|
[ Tab from: http://www.guitartabs.cc/tabs/d/darkness/love_on_the_rocks_with_no_ice_tab.html ]
Riff
e|-----0--------------------------------------------------------------------|
B|-----3--------------------------------------------------------------------|
G|-----2--------------------------------------------------------------------|
D|-2-2-0-2------2-2----2----------------------------------------------------|
A|-2-2---2--8-5-0-0----0--8-5-----------------------------------------------|
E|-0-0---0--6-3-----3^----6-3-----------------------------------------------|

Before Chorus
e|---------------0-----0------0---------------------------------------------|
B|---------------5-----5------5---------------------------------------------|
G|---------------4-----4------4---------------------------------------------|
D|---------------0-----0------0---2-2-2-------------------------2-----------|
A|-4-4-4-4--2-2----2-2----2-2---2-0-0-0-5-5-5-5--4-4-4--2-2-----0-----------|
E|-2-2-2-2--0-0----0-0----0-0---0-------3-3-3-3--2-2-2--0-0-3^0-------------|
                                  Wooooo In The Eye............. Warm.....

Lil thingy bob magiggy
e|---7---9-----9---12-------------------------------------------------------|
B|--------------------------------------------------------------------------|
G|-4\7-7\9---7\9-9\12-------------------------------------------------------|
D|--------------------------------------------------------------------------|
A|--------------------------------------------------------------------------|
E|--------------------------------------------------------------------------|

Chorus
e|-0------------------------------------------------------------------------|
B|-3------------------------------------------------------------------------|
G|-2------------------------------------------------------------------------|
D|-0-2----------------------------------------------------------------------|
A|---0-2--2----2------------------------------------------------------------|
E|-----0--0-3^-0------------------------------------------------------------|

Thats it.... tha solo is almost dun but im not puttin it on yet.... u have to
email me.. its gd for morale. Bye... laterz peeps. Bostock XxXxXxX
Comments