Darkness - Love On The Rocks With No Ice Chords & Tabs

 

Love On The Rocks With No Ice Chords & Tabs

Darkness Chords & Tabs

Version: 1 Type: Bass Tab 0 ratings
1 star 2 stars 3 stars 4 stars 5 stars
comments

Love On The Rocks With No Ice Bass Tab

   
ok this is the ENTIRE song in its glory, no legends to follow,
just play this bad boy through and have some fun :D

Bass comes in at 0:11

G|----------------------------------|
D|----------------------------------|
A|-----5-----1-0----0-0---0---1-0---| REPEAT 6 TIMES
E|-0-0---0------3-------3---------3-|

   0:45              
G|--------------------------------------------------------|
D|--------------------------------------------------------|
A|-5555555555555555\0-------------------------------------|
E|--------------------0000000000000000-22-3333333333333333|

   1:02          
G|------------|
D|------------|
A|-5-5-3-2----|
E|---------5~-|



   1:10
G|-----------------------------------------------|
D|-----------------------------------------------|
A|-5---------------5---------------5-------------|
E|---5--0--0-3-0-----5--0--0-3-0-----5--0--0-3-0-|

   1:19
G|---------|
D|---------|
A|---------|
E|-3-2-3-5~|

   1:21
G|-----------------------------------------------|
D|-----------------------------------------------|
A|-5---------------5---------------5-------------|
E|---5--0--0-3-0-----5--0--0-3-0-----5--0--0-3-0-|

   1:30
G|----------------|
D|----------------|
A|----------------|
E|-3-2-0-3-2-0-5~-|



   1:34
G|----------------------------------|
D|----------------------------------|
A|-----5-----1-0----0-0---0---1-0---|REPEAT 6 TIMES
E|-0-0---0------3-------3---------3-|

   2:08
G|--------------------------------------------------------|
D|--------------------------------------------------------|
A|-5555555555555555\0-------------------------------------|
E|--------------------0000000000000000-22-3333333333333333|

   2:25
G|------------|
D|------------|
A|-5-5-3-2----|
E|---------5~-|



   2:33
G|-----------------------------------------------|
D|-----------------------------------------------|
A|-5---------------5---------------5-------------|
E|---5--0--0-3-0-----5--0--0-3-0-----5--0--0-3-0-|

   2:42
G|---------|
D|---------|
A|---------|
E|-3-2-3-5~|

   2:45
G|-----------------------------------------------|
D|-----------------------------------------------|
A|-5---------------5---------------5-------------|
E|---5--0--0-3-0-----5--0--0-3-0-----5--0--0-3-0-|

   2:53
G|----------------|
D|----------------|
A|----------------|
E|-3-2-0-3-2-0-5~-|


[ Tab from: http://www.guitartabs.cc/tabs/d/darkness/love_on_the_rocks_with_no_ice_btab.html ]
   2:58
G|------------------------------------|
D|------------------------------------|
A|-----5-----1-0-0----0-0---0---1-0---|REPEAT 4 TIMES
E|-0-0---0--------3-------3---------3-|

   3:21
G|--------------------------------------------------------|
D|--------------------------------------------------------|
A|-5555555555555555\0-------------------------------------|
E|--------------------0000000000000000-22-3333333333333333|

   3:37
G|------------|
D|------------|
A|-5-5-3-2----|
E|---------5~-|



   3:57            4:00
G|---------------|----------|
D|---------------|----------|
A|-5-------------|----------|
E|---5--0--0-3-0-|-3-2-3-5~-|

   4:03
G|-----------------------------------------------|
D|-----------------------------------------------|
A|-5---------------5---------------5-------------|
E|---5--0--0-3-0-----5--0--0-3-0-----5--0--0-3-0-|

   4:11
G|---------|
D|---------|
A|---------|
E|-3-2-3-5~|

   4:14
G|-----------------------------|
D|-----------------------------|
A|-5--------------5------------|
E|---5--0--0-3-0----5--0-00000-|

G|---------------|----------|
D|---------------|----------|
A|-5-------------|----------|
E|---5--0--0-3-0-|-3-2-3-5~-|

G|-----------------------------|
D|-----------------------------|
A|-5--------------5------------|
E|---5--0--0-3-0----5--0-00000-|

G|---------------|----------|
D|---------------|----------|
A|-5-------------|----------|
E|---5--0--0-3-0-|-3-2-3-5~-|

G|-----------------------------|
D|-----------------------------|
A|-5--------------5------------|
E|---5--0--0-3-0----5--0-00000-|

G|---------------|----------|
D|---------------|----------|
A|-5-------------|----------|
E|---5--0--0-3-0-|-3-2-3-5~-|

G|-----------------------------|
D|-----------------------------|
A|-5--------------5------------|
E|---5--0--0-3-0----5--0-00000-|

G|---------------|----------------|
D|---------------|----------------|
A|-5-------------|----------------|
E|---5--0--0-3-0-|-3-2-0-3-2-0-5~-|


now the next part is really only like two notes for the bass an F and an E

G|--(ok stay on this note for-----------------------------|
D|---awhile then switch over to this one)-----------------|
A|--------------------------------------------------------|
E|-000000000000000000000000-------------11111111111111111-|

then finally just end on these two notes
G|-----|
D|-----|
A|-----|
E|-1-0-|
Comments