Darkness - Love Is Only A Feeling Chords & Tabs

 

Love Is Only A Feeling Chords & Tabs

Darkness Chords & Tabs

Version: 7 Type: Tab 0 ratings
1 star 2 stars 3 stars 4 stars 5 stars
comments

Love Is Only A Feeling Tab

   
Love is only a Feeling
The Darkness
Tabbed by Spudz

Gtr I (E A D G B E) - Justin Hawkins
Gtr II (E A D G B E) - Dan Hawkins
Acoustic Gtr I (E A D G B E) -
Acoustic Gtr 11 ( E A D G B E) -

Tablature Legend
----------------
 h   - hammer-on
 p   - pull-off
 b   - bend
 pb  - pre-bend
 r   - bend release (if no number after the r, then release immediately)
 /\  - slide into or out of (from/to "nowhere")
 ~   - vibrato
 T   - tap
 TP  - trem. picking
 PM  - palm muting
 <>  - volume swell (louder/softer)
 x   - on rhythm slash represents muted slash


Intro 1
   Gtr 1
 |----------------|----------------|----------------|----------------|
 |----------------|----------------|----------------|----------------|
 |----------------|-7---7----------|----------------|----------------|
 |-5---5----------|-7---7----------|-7---7---x------|-5---5----------|
 |-5---5----------|-5---5----------|-7---7---x---4--|-5---5----------|
 |-3---3----------|----------------|-5---5---x0h2--|-3---3----------|
 |                                                                   |
 | Gtr 2                                                             |
 |----------------|----------------|----------------|----------------|
 |----------------|----------------|----------------|----------------|
 |-16------16-----|-16-14----14----|----------------|--------12------|
 |----------------|-------------12-|/14-16-x-x-14-12|----------------|
 |----------------|----------------|----------------|----14----------|
 |----------------|----------------|----------------|----------------|


 |--------------------|---------------------|--------------------|--------------------|
 |--------------------|---------------------|--------------------|--------------------|
 |--------------------|-7----7--------------|--------------------|--------------------|
 |-5----5-------------|-7----7--------------|-7----7-------------|-7----7-------------|
 |-5----5-------------|-5----5--------------|-7----7----x-7--9--7|-7----7-------------|
 |-3----3-------------|---------------------|-5----5----x-5--5--5|-5----5-------------|
 |                                                                                    |
 |                                                                                    |
 |-------17-----------|------17-----17------|--------------------|--------------------|
 |-17b19----19r17-----|-17b19--17b19--17b19-|-17-----------15----|14----12------------|
 |--------------------|---------------------|--------------------|------------14------|
 |--------------------|---------------------|--------------------|--------------------|
 |--------------------|---------------------|--------------------|--------------------|
 |--------------------|---------------------|--------------------|--------------------|

Intro 2
   Gtr 1
 |----------------|----------------|----------------|----------------|
 |----------------|----------------|----------------|----------------|
 |----------------|-7---7----------|----------------|----------------|
 |-5---5----------|-7---7----------|-7---7---x------|-5---5----------|
 |-5---5----------|-5---5----------|-7---7---x---4--|-5---5----------|
 |-3---3----------|----------------|-5---5---x0h2--|-3---3----------|
 |                                                                   |
 |  Gtr 2                                                            |
 |----------------|----------------|----------------|----------19-19-|
 |----------------|-------------15-|-17---15-7br-15-|----------20-20-|
 |-16------16-----|-16-14--14-16---|----------------|-16-------------|
 |----------------|----------------|----------------|----------------|
 |----------------|----------------|----------------|----------------|
 |----------------|----------------|----------------|----------------|


 |---------------------|--------------------|--------------------|--------------------|
 |---------------------|--------------------|--------------------|--------------------|
 |---------------------|-7---7--------------|--------------------|--------------------|
 |-5---5---------------|-7---7--------------|-7---7--------------|-7---7--------------|
 |-5---5---------------|-5---5--------------|-7---7---x-7-9-7----|-7---7--------------|
 |-3---3---------------|--------------------|-5---5---x-5-5-5----|-5---5--------------|
 |                                                                                    |
 |                                                                                    |
 |19-17-17-17-17-15-15-|15-15-14-14-14-14/10|-12-----------------|--------------------|
 |20-19-19-19-19-17-17-|17-17-15-15-15-15/10|-14-----------------|--------------------|
 |---------------------|--------------------|--------------------|--------------------|
 |---------------------|--------------------|--------------------|--------------------|
 |---------------------|--------------------|--------------------|--------------------|
 |---------------------|--------------------|--------------------|--------------------|


Verse 1  Acoustic chord pregression
   Acoustic guitar 1
 |G---------------|D-Dsus4-D-Dsus2-|A---------------|G---------------|
 |G---------------|D-Dsus4-D-Dsus2-|A---------------|A---------------|

Verse 2
   Acoustic 1
 |G---------------|D-Dsus4-D-Dsus2-|A---------------|G---------------|
 |                                                                   |
 | Acoustic 2 <                                                       |
 |----------------|----------------|----------------|------------------|
 |-7--------8--8--|-8------/10--10-|/14-------------|-12-------12-12---|
 |-7--------7--7--|-7------/7---9--|/14---------/14-|-12-------12-12---|
 |----------------|----------------|------------/14-|------------------|
 |----------------|----------------|----------------|------------------|
 |----------------|----------------|----------------|------------------|
   T.P.----------------------------------------------------------------|

 |G---------------|D-Dsus4-D-Dsus2-|A---------------|A---------------|
 |                                                                   |
 |                                                                   |
 |----------------|----------------|----------------|------------------|
 |-12------10-----|-7---8---10--10-|-14----------15-|/17-------15-14---|
 |-12------12-----|-7---7---7---9--|-14----------14-|/14-------14-14---|
 |----------------|----------------|----------------|------------------|
 |----------------|----------------|----------------|------------------|
 |----------------|----------------|----------------|------------------|
   T.P.----------------------------------------------------------------|

Pre-chorus
   Gtr 1
   P.M-------------------------------------------------------------------------------------------------|
 |----------------|----------------|----------------|----------------|----------------|----------------|
 |----------------|----------------|----------------|----------------|----------------|----------------|
 |----------------|----------------|----------------|----------------|----------------|-7---7---7---7--|
 |-2---2---2---2--|-2---2---2---2--|-7---7---7---7--|-7---7---7---7--|-2---2---2---2--|-7---7---7---7--|
 |-2---2---2---2--|-2---2---2---2--|-7---7---7---7--|-7---7---7---7--|-2---2---2---2--|-5---5---5---5--|
 |-0---0---0---0--|-0---0---0---0--|-5---5---5---5--|-5---5---5---5--|-0---0---0---0--|----------------|

Chorus
   Gtr 1
 |----------------|----------------|----------------|----------------|
 |----------------|----------------|----------------|----------------|
 |-4--------------|----------------|-7--------------|----------------|
 |-4--------------|-5--------------|-7--------------|-7--------------|
 |-2--------------|-5--------------|-5--------------|-7--------------|
 |----------------|-3--------------|----------------|-5--------------|
 |                                                                   |
 | Gtr 2                                                             |
 |---------12-----|---------12-----|----------12----|---------12-----|
 |------------10--|[10]--------10--|[10]---------10-|[10]--------10--|
 |----------------|----------------|----------------|----------------|
 |----------------|----------------|----------------|----------------|
 |----------------|----------------|----------------|----------------|
 |----------------|----------------|----------------|----------------|


 |----------------|----------------|----------------|----------------|
 |----------------|----------------|----------------|----------------|
 |-4--------------|----------------|-7--------------|----------------|
 |-4--------------|-5--------------|-7--------------|-7---7---2---2--|
 |-2--------------|-5--------------|-5--------------|-7---7---2---2--|
 |----------------|-3--------------|----------------|-5---5---0---0--|
 |						                        |
 |                                                                   |
 |---------12-----|---------12-----|----------12----|----------------|
 |------------10--|[10]--------10--|[10]---------10-|[10]------------|
 |----------------|----------------|----------------|----------------|
 |----------------|----------------|----------------|----------------|
 |----------------|----------------|----------------|----------------|
 |----------------|----------------|----------------|----------------|


 |-----------------------|------------------------|------------------------|------------------------|
 |-----------------------|------------------------|------------------------|------------------------|
 |-4---------------------|------------------------|-7----------------------|------------------------|
 |-4---------------------|-5----------------------|-7----------------------|-7----------------------|
 |-2---------------------|-5----------------------|-5----------------------|-7----------------------|
 |-----------------------|-3----------------------|------------------------|-5----------------------|


 |10-10-10-10-10-10-10-10|-10-10-10-10-10-10-10-10|-10-10-10-10-10-10-10-10|-9--9--9--9--9--9--9--9-|
 |10-10-10-10-10-10-10-10|-10-10-10-10-10-10-10-10|-10-10-10-10-10-10-10-10|-10-10-10-10-10-10-10-10|
 |-----------------------|------------------------|------------------------|------------------------|
 |-----------------------|------------------------|------------------------|------------------------|
 |-----------------------|------------------------|------------------------|------------------------|
 |-----------------------|------------------------|------------------------|------------------------|

Chorus ending 1
   Gtr 1
 |------------------|------------------|------------------|------------------|
 |------------------|------------------|------------------|------------------|
 |------------------|------------------|------------------|------------------|
 |-5----------------|------------------|------------------|------------------|
 |-5----------------|------------------|------------------|------------------|
 |-3----------------|------------------|------------------|------------------|

  Gtr 2
 |-10---------------|------------------|------------------|------------------|
 |-10---------------|------------------|------------------|------------------|
 |------------------|------------------|x-11-x-x-9-x-x-12-|-x-x-11-x-11-9--9-|
 |------------------|------------------|------------------|--------------12--|
 |------------------|------------------|------------------|------------------|
 |------------------|------------------|------------------|------------------|

Chorus ending 2
   Gtr 1
 |------------------|------------------|------------------|------------------|
 |------------------|------------------|------------------|------------------|
 |------------------|------------------|------------------|------------------|
 |-5----------------|------------------|------------------|------------------|
 |-5----------------|------------------|------------------|------------------|
 |-3----------------|------------------|------------------|------------------|
 |                                                                           |
 | Gtr 2                                                                     |
 |------------------|------------------|------------------|------------------|
 |------------------|------------------|------------------|------------------|
 |-16---------------|------------16-16-|-16-/-14----------|-------------14---|
 |------------------|------------------|------------------|------------------|
 |------------------|------------------|------------------|------------------|
 |------------------|------------------|------------------|------------------|
[ Tab from: http://www.guitartabs.cc/tabs/d/darkness/love_is_only_a_feeling_tab_ver_7.html ]
Guitar solo 1
   Gtr 1
 |-------------------------|-------------------------|-------------------------|
 |-------------------------|-------------------------|----------------14-14-14-|
 |-------------------------|----------------14-------|-14-16-------------------|
 |-------------------------|-16-17-------------------|-------------------------|
 |-------------------------|-------------------------|-------------------------|
 |-------------------------|-------------------------|-------------------------|
 |               								    |
 | Gtr 2                                                                       |
 |-------------------------|-------------------------|-------------------------|
 |-------------------------|-------------------------|----------------14-14-14-|
 |-------------------------|----------------14-14-14-|-14-16-16-16-16----------|
 |-16----------------16-16-|-16-17-17-17-17----------|-------------------------|
 |-------------------------|-------------------------|-------------------------|
 |-------------------------|-------------------------|-------------------------|


 |-------17-----------|-------17-----------|------17-----17------|--------------------|
 |-17b19----19r17-----|-17b19----19r17-----|-17b19--17b19--17b19-|-17-----17-15-15-14-|
 |--------------------|--------------------|---------------------|--------------------|
 |--------------------|--------------------|---------------------|--------------------|
 |--------------------|--------------------|---------------------|--------------------|
 |--------------------|--------------------|---------------------|--------------------|
 |                                                                                    |
 |                                                                                    |
 |-------17-----------|-------17-----------|------17-----17------|--------------------|
 |-17b19----19r17-----|-17b19----19r17-----|-17b19--17b19--17b19-|-17-----17-15-15-14-|
 |--------------------|--------------------|---------------------|--------------------|
 |--------------------|--------------------|---------------------|--------------------|
 |--------------------|--------------------|---------------------|--------------------|
 |--------------------|--------------------|---------------------|--------------------|


 |--------------------|--------------------|-17---------14-15-17-|-21b-21b-21br19-17--|
 |-14-----------------|--------------14-15-|---------17----------|--------------------|
 |--------------------|-14-----14-16-------|---------------------|--------------------|
 |-----------14-16-17-|--------------------|---------------------|--------------------|
 |--------17----------|--------------------|---------------------|--------------------|
 |--------------------|--------------------|---------------------|--------------------|
 |                                                                   |
 |                                                                   |
 |--------------------|-14-----14-15-17-19-|-19------19-17-19-21-|-21b-21b-21br19-17--|
 |-14--------14-15-17-|--------------------|---------------------|--------------------|
 |--------16----------|--------------------|---------------------|--------------------|
 |--------------------|--------------------|---------------------|--------------------|
 |--------------------|--------------------|---------------------|--------------------|
 |--------------------|--------------------|---------------------|--------------------|

 Chorus 2
   Gtr 1
 |----------------|----------------|----------------|----------------|
 |----------------|----------------|----------------|----------------|
 |-4-------4------|----------------|-7-------7------|----------------|
 |-4-------4------|-5-------5------|-7-------7------|-7-------7------|
 |-2-------2------|-5-------5------|-5-------5------|-7-------7------|
 |----------------|-3-------3------|----------------|-5-------5------|
 | Gtr 2                                                             |
 |                                                                   |
 |-19-------------|-19-------------|-19-------------|-19-----17--------|
 |----------------|----------------|----------------|-----------19-----|
 |----------------|----------------|----------------|------------------|
 |----------------|----------------|----------------|------------------|
 |----------------|----------------|----------------|------------------|
 |----------------|----------------|----------------|------------------|
   T.P.----------------------------------------------------------------|

 |----------------|----------------|----------------|----------------|
 |----------------|----------------|----------------|----------------|
 |-4-------4------|----------------|-7-------7------|----------------|
 |-4-------4------|-5-------5------|-7-------7------|-7-------7------|
 |-2-------2------|-5-------5------|-5-------5------|-7-------7------|
 |----------------|-3-------3------|----------------|-5-------5------|
 |                                                                   |
 |                                                                   |
 |----------------|----------------|----------------|------------------|
 |-19-------------|-19-------------|-19-------------|-19---------------|
 |-16-------------|-16-------------|-16-------------|-16---------------|
 |----------------|----------------|----------------|------------------|
 |----------------|----------------|----------------|------------------|
 |----------------|----------------|----------------|------------------|
   T.P.----------------------------------------------------------------|

 |----------------|----------------|----------------|----------------|
 |----------------|----------------|----------------|----------------|
 |-4--------------|----------------|-7--------------|----------------|
 |-4--------------|-5--------------|-7--------------|-7--------------|
 |-2--------------|-5--------------|-5--------------|-7--------------|
 |----------------|-3--------------|----------------|-5--------------|
 |                                                                   |
 |                                                                   |
 |---------12-----|---------12-----|----------12----|---------12-----|
 |------------10--|[10]--------10--|[10]---------10-|[10]--------10--|
 |----------------|----------------|----------------|----------------|
 |----------------|----------------|----------------|----------------|
 |----------------|----------------|----------------|----------------|
 |----------------|----------------|----------------|----------------|

Guitar solo 2
   Gtr 1
 |----------------|----------------|----------------|----------------|
 |----------------|----------------|----------------|----------------|
 |----------------|----------------|----------------|----------------|
 |----------------|----------------|-12b-----14br-14|---16-14--14-14b|
 |-5--------------|-x---5-5-5--x-5-|-12b--14--------|-16-----16------|
 |---7-5-7-7--x-7-|----------------|------14--------|----------------|

 |--------------------|--------------------|--------------------|--------------------|
 |--------------------|--------------------|-17b------17p15h17~-|/19-17-15-17-15-----|
 |-18~-------16~------|-18~-------16~---14-|--------------------|-----------------18-|
 |--------------------|--------------------|--------------------|--------------------|
 |--------------------|--------------------|--------------------|--------------------|
 |--------------------|--------------------|--------------------|--------------------|
                        Gtr 2
 |--------------------|--------------------|--------------------|--------------------|
 |--------------------|-------7-------7----|----7---7---7---7---|----7---7---7--7----|
 |-14b-HOLD->---------|-6b-6b---6b------6b-|-6b--6b--6b--6b-----|-6b--6b--6b--6b-----|
 |--------------------|--------------------|--------------------|--------------------|
 |--------------------|--------------------|--------------------|--------------------|
 |--------------------|--------------------|--------------------|--------------------|
   Gtr 1                                            t    t       t         t      t      t     t
 |-12b12b----------12p10-|h12p10p9h10-9p7h9p7h10p7-12p9-14-9p7-|12-10p9p7-14-9p7-15-9p7-14-9p7-15-9p7|
 |------------------------|-------------------------------------|-------------------------------------|
 |------------------------|-------------------------------------|-------------------------------------|
 |------------------------|-------------------------------------|-------------------------------------|
 |------------------------|-------------------------------------|-------------------------------------|
 |------------------------|-------------------------------------|-------------------------------------|
  t      t      t      t      t      t
 |17-9p7-15-9p7-17-9p7-15-9p7-17-9p7-17-15-|
 |-----------------------------------------|
 |-----------------------------------------|
 |-----------------------------------------|
 |-----------------------------------------|
 |-----------------------------------------|
   Gtr 1
 |-17b>---------------|--------------------|--------------------|-10--------12---10--|
 |--------------------|--------------------|--------------------|------10------------|
 |--------------------|--------------------|--------------------|--------------------|
 |--------------------|--------------------|--------------------|--------------------|
 |--------------------|--------------------|--------------------|--------------------|
 |--------------------|--------------------|--------------------|--------------------|
 |                                                                                   |
 | Gtr 2                                                                             |
 |--------------------|--------------------|--------------------|--------------------|
 |-17b>---------------|--------------------|--------------------|--------------------|
 |--------------------|--------------------|--------------------|--------------------|
 |--------------------|-/9--7--7-----7-----|-(7)----------------|--------------------|
 |--------------5--5--|-----------9--------|-----9-7-5----------|--------------------|
 |--------------------|--------------------|--------------------|--------------------|

   Gtr 1
 |--------------------|--------------------|--------------------|-10--------12---10--|
 |--------------------|--------------------|--------------------|------10------------|
 |--------------------|--------------------|--------------------|--------------------|
 |--------------------|--------------------|--------------------|--------------------|
 |--------------------|--------------------|--------------------|--------------------|
 |--------------------|--------------------|--------------------|--------------------|
 |                                                                                   |
 | Gtr 2                                                                             |
 |--------------------|--------------------|--------------------|--------------------|
 |--------------------|--------------------|--------------------|--------------------|
 |--------------------|--------------------|--------------------|--------------------|
 |--------------------|-/9--7--7-----7-----|-(7)----------------|--------------------|
 |--------------5--5--|-----------9--------|--------------------|--------------------|
 |--------------------|--------------------|--------------------|--------------------|

   Gtr 1
 |--------------------|--------------------|--------------------|--------------------|
 |--------------------|--------------------|--------------------|--------------------|
 |--------------------|-/10-9--9--7--9-----|-(9)-7---5----------|--------------------|
 |--------------9-----|--------------------|--------------------|-7------------------|
 |--------------------|--------------------|--------------------|--------------------|
 |--------------------|--------------------|--------------------|--------------------|
 |                                                                                   |
 | Gtr 2                                                                             |
 |--------------------|--------------------|--------------------|--------------------|
 |--------------------|--------------------|--------------------|--------------------|
 |--------------------|--------------------|--------------------|--------------------|
 |--------------------|-/9--7--7-----7-----|-(7)----------------|--------------------|
 |--------------5--5--|-----------9--------|-----9---5----------|--------------------|
 |--------------------|--------------------|--------------------|--------------------|

   Gtr 1
 |--------------------|--------------------|--------------------|--------------------|
 |--------------------|--------------------|--------------------|--------------------|
 |--------------------|--------------------|--------------------|--------------------|
 |(7b)----------------|(7b)----------------|(7b)----------------|(7b)----------------|
 |--------------------|--------------------|--------------------|--------------------|
 |--------------------|--------------------|--------------------|--------------------|
 |                                                                                   |
 | Gtr 2                                                                             |
 |--------------------|--------------------|--------------------|--------------------|
 |--------------------|--------------------|--------------------|--------------------|
 |--------------------|--------------------|--------------------|--------------------|
 |--------------------|--------------------|--------------------|--------------------|
 |(/2)----------------|(2)-----------------|(2)-----------------|(2)-----------------|
 |--------------------|--------------------|--------------------|--------------------|

End
  Acoustic 1
 |-B--->----------|
 |                |
 |Acoustic 2      |
 |----------------|
 |-12-->----------|
 |-12-->----------|
 |----------------|
 |----------------|
 |----------------|

Song Order
Intro 1         x1
Intro 2         x1
Verse 1         x2
Prechorus       x1
Chorus 1        x1
Chorus ending 1 x1
Intro 2         x1
Verse 2         x1
Prechorus       x1
Chorus 1        x1
Chorus ending 2 x1
Guitar solo 1   x1
Chorus 2        x1
Guitar solo 2   x1
Verse 1         x1
Verse 2         x1
End             x1
Comments