Darkness - Love Is Only A Feeling Chords & Tabs

 

Love Is Only A Feeling Chords & Tabs

Darkness Chords & Tabs

Version: 5 Type: Tab 0 ratings
1 star 2 stars 3 stars 4 stars 5 stars
comments

Love Is Only A Feeling Tab

ARTIST: The Darkness
TITLE:  Love Is Only A Feeling
ALBUM:  Permission To Land
GENRE:  Umm, crap-rock? Ego-rock? Heh, dunno, rock 'n' roll I guess.

by Luke Charman

None of the other tabs for this song had this solo correct, so I thought I might as well
tab it how I play it, since I'm not a world-class guitarist, and maybe other guitarists
of my skill level will now be able to play this solo :) I hope so! I've broken it down
into four main parts (so you can learn one at a time, making it easier).

---

E|------------------------------------------------------------------
B|--10b12-12-12-12--12-12-12r10-10-10-------------------------------
G|------------------------------------7-7/9-9b10r9-7---12-----------
D|-(hold the bend while you play---------------------9--------------
A|---these 12's, so you're actually---------------------------------
D|-----playing them on the 10th fret)-------------------------------
[ Tab from: http://www.guitartabs.cc/tabs/d/darkness/love_is_only_a_feeling_tab_ver_5.html ]
E|--------17--------------17-------17-----------17----17------------
B|--17b19----19r17--17b19----17b19----17b19-17-----15----14--12-10--
G|------------------------------------------------------------------
D|------------------------------------------------------------------
A|------------------------------------------------------------------
D|------------------------------------------------------------------

E|------------------------------------------------------------------|
B|--10b12-12-12-12--12-12-12r10-10--10-12-15-15b17-17-15-15-12------|
G|-------------------------------------------------*****------------|
D|-------(hold the bend for these 17 and 15 then release------------|
A|---------before the next 15, i.e. play 17 and 15 while the--------|
D|-------------string is still being bent)--------------------------|

E|--19-19-19-17-17-17-17/15-15-15-15/14-14-14-14/10-10-12-----------|
B|-----------------------------------------------------**-----------|
G|----------------------------------------let the last 12 ring------|
D|------------------------------------------------------------------|
A|------------------------------------------------------------------|
D|------------------------------------------------------------------|

---

If you have any questions, comments, corrections, or whatever, my MSN Messenger address
is luke@so.org. You can email me there too if you want, but I don't check that address
all that often.
Comments