Darkness - Love Is Only A Feeling Chords & Tabs

 

Love Is Only A Feeling Chords & Tabs

Darkness Chords & Tabs

Version: 4 Type: Tab 0 ratings
1 star 2 stars 3 stars 4 stars 5 stars
comments

Love Is Only A Feeling Tab

   
h - hammer on 
p - pull off 
b - bend string up
r - release bend
/ - slide up
\ - slide down
x - play 'note' with heavy damping

Intro Gtr. 1
E-----------------------------------------------------------------
B-----------------------------------------------------------------
G-----------------------------------------------------------------
D-----7----------------7------------------------------------------
A--5--5--7--4--4/5--5--5--7--7------------------------------------
E--3-----5--2--2/3--3-----5--5------------------------------------

Solo Gtr. 2
E--------------------------------------------------17------------
B--------------------------------------------17b19-----19r18**---
G-16-16-16p14*-14------------------------------------------------
D--------------------14-16-14-------17--1616---------------------
A-----------------17----------17-14------------------------------
E----------------------------------------------------------------
*you don't have to pull off here, but I think it was he does in the song
**it's not really a release down to exactly the 18th fret, it's just a slow
release of the bend that never actually releases back down to the 17th fret.

E-----17-----17-------------------------------------------------------------
B-b19----b19----b19-17-15------------------------------------15-17-15-17b19-
G-------------------------18-16-14-16-16-1616-16p14-14-14-16----------------
D---------------------------------------------------------------------------
A---------------------------------------------------------------------------
E---------------------------------------------------------------------------

E----------19-19-19-17-17-17\15-15-15\14-14-14-------------------
B-17p15*---20-20-20-19-19-19\17-17-17\15-15-15--------17---------
G------16----------------------------------------14**-14---------
D------------------------------------------------16--------------
A----------------------------------------------------------------
E----------------------------------------------------------------
*again, you don't have to pull off, you can just play it
**might also be G-14-  
                D-12-
[ Tab from: http://www.guitartabs.cc/tabs/d/darkness/love_is_only_a_feeling_tab_ver_4.html ]
Verse
Chord progression basically goes like this..
   G   D      A  G  G
E--3---2-3-2--0--3--3-
B--3---3-3-3--2--3--3-
G--0---2-2-2--2--0--0-
D--0---0-0-0--2--0--0-
A--2----------0--2--2-
E--3-------------3--3-

Bridge into Chorus
E----------------
B----------------
G-------------2--
D------2------0--
A--2---0---2-----
E--0-------0-----

Chorus Gtr. 1
E----------------------------------------------------------------
B----------------------------------------------------------------
G----------------------------------------------------------------
D--4-----7-----4-----7-----------4-----7-------------------------
A--2--5--5--7--2--5--5--7-7-2-2--2--5--5--7--5-------------------
E-----3-----5-----3-----5-5-0-0-----3-----5--3-------------------
                         /|\
Chorus Gtr. 2             |           D                A     G 
E----12--------12----     |          -x-             --x-----x----
B-10----10--10----10-     |          -x-             --x-----x----
G--------------------  till there,   -7-             --x-----x----
D--------------------   and then     -7-             --7-----5----
A--------------------                -5-(for a while)--7-----5----
E--------------------                -x-             --5-----3----

Bridge into Second Solo
E---------------------------------
B---------------------------------
G---12-12-11-11-12-11-11-11-12----
D---------------------------------
A---------------------------------
E---------------------------------

Second Solo
E-------------------------------------------------19-19-19\17-17-17\15-15-
B---------------------------15-17-17b19-17p15*----20-20-20\19-19-19\17-17-
G-16-16-1616-16p14*-14-14h16------------------16--------------------------
D-------------------------------------------------------------------------
A-------------------------------------------------------------------------
E-------------------------------------------------------------------------
*once again, you don't have to pull off, but I think that is what he actually plays

E-15\14-14-14--------14-15-19-17**--
B-17\15-15-15-----17-12-13-20-15----
G-------------14*-14----------------
D-------------16--------------------
A-----------------------------------
E-----------------------------------
*might also be G-14-  
               D-12-
**the ascending part right there may just be single notes

Verse
Bridge into Chorus
Chorus
Third Solo




I will tab out the rest later, the third solo is taking me a while to find out
Comments