Darkness - Love Is Only A Feeling Chords & Tabs

 

Love Is Only A Feeling Chords & Tabs

Darkness Chords & Tabs

Version: 1 Type: Tab 0 ratings
1 star 2 stars 3 stars 4 stars 5 stars
comments

Love Is Only A Feeling Tab

   
ARTIST: The Darkness
TITLE: Love Is Only A Feeling
ALBUM: permission To Land
TABBED BY: Martin Kelly

GTR 1
								Repeat once.
E------------------------------------------------------------------------------
B------------------------------------------------------------------------------
G----------7--------2---------------------7--------2-----2-2-------------------
D--5-------7--------2-----4/5-----5-------7--------2-----2-2-------------------
A--5-------5--------0-----4/5-----5-------5--------0-----0-0-------------------
E--3----------------------2/3-----3--------------------------------------------

GTR 2

E------------------------------------------------------17---------------17-----
B--10[12]-[12]-[12]-10-------------------------17[19]-----17[19]-17[19]---[19]-
G----------------------7/9-9[11]9-----12---------------------------------------
D---------------------------------7^9------------------------------------------
A------------------------------------------------------------------------------
E------------------------------------------------------------------------------

E----------------------------------------10-12--12[14]--12---------------------
B--17----15-14-12--10--12--12--12^10--12-------------------12-12---------------
G------------------------------------------------------------------------------
D------------------------------------------------------------------------------
A------------------------------------------------------------------------------
E------------------------------------------------------------------------------

GTR 3

E--19-19-19--17-17-17-15-15-15-14-14-14----------------------------------------
B---------------------------------------15/17----------------------------------
G------------------------------------------------------------------------------
D------------------------------------------------------------------------------
A------------------------------------------------------------------------------
E------------------------------------------------------------------------------
]
]GTR 4
]
E--14-14-14--12-12-12-10-10-10--9--9--9----------------------------------------
B---------------------------------------8/10-----------------------------------
G------------------------------------------------------------------------------
D------------------------------------------------------------------------------
A------------------------------------------------------------------------------
E------------------------------------------------------------------------------

VERSE [Acoustic Gtr]

G  D  A  G  G  D  A  

PRE-CHORUS

E------------------------------------------------------------------------------
B------------------------------------------------------------------------------
G------------------------------------------------------------------------------
D------------------------------------------0-0-0-0-----------------------------
A------------------0-0-0-0-0-0-0-0---------------------------------------------
E--0-0-0-0-0-0-0-0-----------------0-0-0-0-------------------------------------

CHORUS

GTR 2
					Repeat once
E-----12---------12--------12--------12----------------------------------------
B--10----10---10----10--10----10--10----10-------------------------------------
G------------------------------------------------------------------------------
D------------------------------------------------------------------------------
A------------------------------------------------------------------------------
E------------------------------------------------------------------------------
]
]GTR 1
]
E------------------------------------------------------------------------------
B------------------------------------------------------------------------------
G--4---------------------7--------2--------------------------------------------
D--4----------5----------7--------2--------------------------------------------
A--2----------5----------5--------0--------------------------------------------
E-------------3----------------------------------------------------------------

BOTH GTRs

E------------------------------------------------------------------------------
B------------------------------------------------------------------------------
G--4---------------------7--------2--------------------------------------------
D--4----------5----------7--------2--------5-----------------------------------
A--2----------5----------5--------0--------5-----------------------------------
E-------------3----------------------------3-----------------------------------

1.

E------------------------10-12--12[14]--12---------------------
B--10--12--12--12^10--12-------------------12-12---------------
G--------------------------------------------------------------
D--------------------------------------------------------------
A--------------------------------------------------------------
E--------------------------------------------------------------
]
]
]
E-------------------------------------------------------------
B-------------------------------------------------------------
G----------7--------2---------------------7--------2-----2-2--
D--5-------7--------2-----4/5-----5-------7--------2-----2-2--
A--5-------5--------0-----4/5-----5-------5--------0-----0-0--
E--3----------------------2/3-----3---------------------------

GTR 3

E--19-19-19--17-17-17-15-15-15-14-14-14----------------17[19]-17---------------
B---------------------------------------15/17-17-19-20-------------------------
G------------------------------------------------------------------------------
D------------------------------------------------------------------------------
A------------------------------------------------------------------------------
E------------------------------------------------------------------------------
]
]GTR 4
]
E--14-14-14--12-12-12-10-10-10--9--9--9----------------------------------------
B---------------------------------------8/10--12-14----------------------------
G------------------------------------------------------------------------------
D------------------------------------------------------------------------------
A------------------------------------------------------------------------------
E------------------------------------------------------------------------------

[ Tab from: http://www.guitartabs.cc/tabs/d/darkness/love_is_only_a_feeling_tab.html ]
2.
GTR 1
E------------------------------------------------------------------------------
B--12------------12-12-12-10-10-10-10-12-10-----------10---10------------------
G-------------------------------------------11--11-12--------------------------
D------------------------------------------------------------------------------
A------------------------------------------------------------------------------
E------------------------------------------------------------------------------
]
]GTR 2
]
E------------------------------------------------------------------------------
B------------------------------------------------------------------------------
G-------------------------2-------------------------4--------------------------
D--5----------------------2-------------------------4--------------------------
A--5----------------------0-------------------------2--------------------------
E--3---------------------------------------------------------------------------


E------------------------------------------------------------------------------
B--12-12--14-14--15-15--17-17--------------------------------------------------
G------------------------------------------------------------------------------
D------------------------------------------------------------------------------
A------------------------------------------------------------------------------
E------------------------------------------------------------------------------
]
]
]
E------------------------------------------------------------------------------
B------------------------------------------------------------------------------
G------------------------------------------------------------------------------
D--5---------------------------------------------------------------------------
A--5---------------------------------------------------------------------------
E--3---------------------------------------------------------------------------

SOLO [GTR 1 plays Chorus Riff]

E---------17--------17----------------17---------------------------------------
B--17[19]----17[19]----17[19]--17[19]----19-17-17-15-14------------------------
G------------------------------------------------------------------------------
D------------------------------------------------------------------------------
A------------------------------------------------------------------------------
E------------------------------------------------------------------------------
]
]GTR 3
]
E------------------------------------------------------------------------------
B------------------------------------------------------------------------------
G--------------------------------------------------------------12----14--------
D--------------------------------------------------------12-14----14-----------
A------------------------------------------------------------------------------
E------------------------------------------------------------------------------
]
]GTR 4
]
E-----------------------------------------------------------------12-14--------
B--------------------------------------------------------12-14-15--------------
G------------------------------------------------------------------------------
D------------------------------------------------------------------------------
A------------------------------------------------------------------------------
E------------------------------------------------------------------------------


E-----------------------------15^17--21[22]-[22]-21--17-19---------------------
B-----12-15-12-15[17]---15^17--------------------------------------------------
G--14--------------------------------------------------------------------------
D------------------------------------------------------------------------------
A------------------------------------------------------------------------------
E------------------------------------------------------------------------------
]
]
]
E--------17----17-------------17-19--21[22]-[22]-21--17-19---------------------
B--17-19----19----------17-19--------------------------------------------------
G------------------------------------------------------------------------------
D------------------------------------------------------------------------------
A------------------------------------------------------------------------------
E------------------------------------------------------------------------------

CODA

GTR 2 [GTR1 plays Chorus riff]

E--------------------------------------------------------------12[14]--12[14]--
B----------------7[8]-----------10[12]-10[12]-10--14[15]-14-12-----------------
G----------------7[8]---9[11]-9------------------------------------------------
D---------------------9--------------------------------------------------------
A---------5-5-5----------------------------------------------------------------
E--7---------------------------------------------------------------------------
                                              T           T          T          
E--12-10----------------------------12[14]---14^12^10^12^14^12^10^12^14^12^10--
B--------12--10[12]------7---7-------------------------------------------------
G--------------------------7---7-----------------------------------------------
D--------------------------------9---------------------------------------------
A------------------------------------------------------------------------------
E------------------------------------------------------------------------------
        T T           T           T           T              
E--^12^14---------------------------------------15^12^10^12^17^12^17-17[19]----
B--------14^12^10^12^14^12^10^12^14^12^10^12^14--------------------------------
G------------------------------------------------------------------------------
D------------------------------------------------------------------------------
A------------------------------------------------------------------------------
E------------------------------------------------------------------------------

E------------------------------------------------------------------------------
B------------------------------------------------------------------------------
G--16-14-12----------------------16-14-12-12-14-12-----------------16-14-12-12-
D-----------12----------12-12-12-------------------14-12--12-12-12-------------
A------------------------------------------------------------------------------
E------------------------------------------------------------------------------

E------------------------------------------------------------------------------
B------------------------------------------------------------------------------
G--14-12----------------14[16]-------------------------------------------------
D--------14-12-----------------------------------------------------------------
A------------------------------------------------------------------------------
E------------------------------------------------------------------------------

ACOUSTIC THEN PLAYS THE INTRO PROGRESSION. and ends on a B

I'm not entirely sure about the tap solo, but the last solo sounds very
improvised, so...

OFFICAL SITE; www.thedarknessrock.com

For a list of tabs contact martin.n.kelly@ntlworld.com
Comments