Darkness - Is It Just Me Chords & Tabs

 

Is It Just Me Chords & Tabs

Darkness Chords & Tabs

Version: 2 Type: Tab

Is It Just Me Tab

From One Way Ticket To Hell... And Back

Capo on first fret. Tune all strings half step down

Intro

E-----------------------------------------------------------------------|
B-----------------------------------------------------------------------|
G-----------------------------------------------------------------------|
D-----------------------------------------------------------------------|
A------------------------------------1-1--4--1-1--5--1-1--4--1-1--5-----|
E--1-1--4--1-1--5--1-1--4--1-1--5---------------------------------------|

x2

Verse


E-----------------------------------------------------------------------|
B-----------------------------------------------------------------------|
G-----------------------------------------------------------------------|
D-----------------------------------------------------------------------|
A------------------------------------1-1--4--1-1--5--1-1--4--1-1--5-----|
E--1-1--4--1-1--5--1-1--4--1-1--5---------------------------------------|

x2
[ Tab from: http://www.guitartabs.cc/tabs/d/darkness/is_it_just_me_tab_ver_2.html ]
E----------------------------------------------------------------------|
B----------------------------------------------------------------------|
G----------------------------------------------------------------------|
D--1-1--4--1-1--5--1-1--4--1-1--5--------------------------------------|
A----------------------------------------------------------------------|
E-------------------------------------1-1--4--1-1--5--1-1--4--1-1--5---|

Pre Chorus

E-------------------------------------------------------|
B-------------------------------------------------------|
G---------------------8v-8v-8v-8v-8v-8v-8v-8v-8v-8v-----|
D--55-55----77-77---------------------------------------|
A--55-33----77-55---------------------------------------|
E--33-33----55-55---------------------------------------|

Chorus

E-----------------------------------------------------|
B-----------------------------------------------------|
G----------33-----------------------------------------|
D--55/77---33---33---55/77----3------3-----3----------|
A--33/55---11---33---33/55----1------1-----1----------|
E---------------11--------------5-1----5-1----5--1----|


That's pretty much the whole song and how it was played live by Dan.