Darkness - Is It Just Me Chords & Tabs

 

Is It Just Me Chords & Tabs

Darkness Chords & Tabs

Version: 2 Type: Bass Tab

Is It Just Me Bass Tab

   
Verse
Part 1
G|-----------------------------------    -|
D|-----------------------------------     |
A|-----------------------------------     |
E|-7/-0-0-4-0-0-5-0-0-4-0-0-5-0-0-4-0     |
                                          |-- x3
G|-----------------------------------     |
D|-----------------------------------     |
A|----4-----5-----4-----5-----4------     |
E|5-5---5-5---5-5---5-5---5-5---5----    -|


Part 2
G|----------------------------------------------------------------|
D|----4-----5-----4-----5-----4-----------------------------------|
A|5-5---5-5---5-5---5-5---5-5---5-----4-----5-----4-----5-----4---|
E|--------------------------------5-5---5-5---5-5---5-5---5-5---5-|

G|------------------------------------------------|
D|------------------------------------------------|
A|--------------------------------777777777777777-|
E|0-0-4-0-0-5-0-0-4-0-0-5-0-0-4-0-----------------|


Chorus
G|----------------------------------------|
D|----------------------------------------|
A|3-3-5-5---------3-3-5-5-----------------|
E|--------5-5-0-0---------5-4-0-5-4-0-5-4-|
[ Tab from: http://www.guitartabs.cc/tabs/d/darkness/is_it_just_me_btab_ver_2.html ]
G|-------------------------------------------------|
D|---------------------4-----5-----4-----5-----4---|
A|3-3-5-5----------5-5---5-5---5-5---5-5---5-5---5-|
E|--------5-5-0-0----------------------------------|

E|5-4-0-5-4-0-5-4-0-5-4-0-5-4-0

-Verse part 1
-Verse part 2
-Chorus
-Followed by
 E|-777777777777777

During solo, play
E|0-0-4-0-0-5-0-0-4-0-0-5-   over and over again, then

G|----------------------------------------------------------------|
D|------------------------------------4-----5-----4-----5-----4---|
A|----4-----5-----4-----5-----4---5-5---5-5---5-5---5-5---5-5---5-|
E|5-5---5-5---5-5---5-5---5-5---5---------------------------------|

E|----------------------------------------------------|
D|----------------------------------------------------|
A|------------------------------------777777777777777-|
E|0-0-4-0-0-5-0-0-4-0-0-5-0-0-4-0-0-5-----------------|

Then the chorus, but with

E|5-4-0-5-4-0-5-4-0  at the beginning.

And that's it! This is my first tab, so there could be mistakes here and there, but 
from that (and if it makes sense) it's all good :-)