Darkness - I Believe In A Thing Called Love Chords & Tabs

 

I Believe In A Thing Called Love Chords & Tabs

Darkness Chords & Tabs

Version: 9 Type: Tab 0 ratings
1 star 2 stars 3 stars 4 stars 5 stars
comments

I Believe In A Thing Called Love Tab

Darkness - Thing called love!

   intro

E-------------------------------------------
B-------------------------------------------
G-------------------------------------------
D----2-2-4-4--4-4-----4-4-2-2---------------
A--4-0-0-2-2--2-2---2-2-2-0-0----0-2-4------
E--2----------------0----------4-------0----  X2


E------------------------------------------|-----------------
B------------------------------------------|-----------------
G----2-2-4-4--4-4-2---4-4-2-2--------------|-----------------
D--4-2-2-4-4--4-4-2-2-4-4-2-2--------------|-2---------------
A--4-0-0-2-2--2-2-0-2-2-2-0-0----0-2-4-----|-2-----0---------
E--2----------------0----------4-------0---|-0---4---4--2-0-- 


E--0-0----------------------------
B--0-0----------------------------
G--1-1----------------------------
D--2-2---4-4-4-4-4-4-4-4-4-4-4----
A--2-2---4-4-4-4-4-4-4-4-4-4-4----
E--0-0---2-2-2-2-2-2-2-2-2-2-2----
          p.m.................

E--0-0--------------------------------
B--0-0--------------------------------
G--1-1----2-3--4-4-4-4-4-4-4-4-4-4----
D--2-2--4-2-3--4-4-4-4-4-4-4-4-4-4----
A--2-2--4-0-1--2-2-2-2-2-2-2-2-2-2----
E--0-0--2-----------------------------


Chorus

E------------------------------
B------------------------------
G---------------------4-6-4----
D--------2------4---2-4-6-4----
A--------0------4---0-2-4-2----
E--0-2-4----4-0-2-4------------



E-----------------
B-----------------
G--6-6-6-4-6-7----
D--6-6-6-4-6-7----
A--4-4-4-2-4-5----
E-----------------

     
SOLO 1

                    
E--9----12------12------  
B--12^------12------12--
G-----------------------  
D-----------------------  
A-----------------------
E----------------------- 

                        
E-16^-----------------------------
B-------17-------------------15^--
G----------16---------------------
D--------------18^18--14----------
A---------------------------------
E---------------------------------



E-------------------------------------------
B-------------------------------------------
G---------------------4-4-2-2---------------
D--4----------------2-4-4-2-2---------------
A--4----------------2-2-2-0-0----0-2-4------
E--2----------------0----------4-------0---- 



SOLO2

E-0-0-0-0---7--7-----h------h------------  
B-5--5-5--7^-7^-7^--5-7-5--4-5-2-0-------  
G----------------------------------1-2-4-  
D----------------------------------------  
A----------------------------------------  
E----------------------------------------  


E---------------------------------  
B---------------------------------  
G---------------------------------  
D--4/6-6-6-4-2---2/4-4-4-6-4-2-2--  
A--------------4------------------  
E--------------------------------- 

E--0-0-0----------------------
B--5-4-0----------------------
G------4---------1-2-4-4------
D-----------------------------
A-----------------------------
E-----------------------------

[ Tab from: http://www.guitartabs.cc/tabs/d/darkness/i_believe_in_a_thing_called_love_tab_ver_9.html ]
      
E-------------------9------9-------
B-10---10--10----9----9------9-----
G-12^--12^-12^--11^-----11-----11--
D----------------------------------
A----------------------------------
E----------------------------------

   
E-9-7------9-7-----------------------------
B-------9------9---------------------------
G----------------11-9-11-9----9-----9-9----
D--------------------------11---11---------
A------------------------------------------
E------------------------------------------



E----------------------------------------------------------------
B-------------------------------------------9--9-9---9-10-12-12\-
G------------------------------9-----9------9--9-9---9-9--11-11\-
D---------------9----9----11-----11------------------------------
A--11---11---11---11----------------------7---7--7--7------------
E----------------------------------------------------------------




E--------------------------
B----------9--9--9--9--7---
G--9--8--6-9--9--9--9--9---
D--9--9--9-----------------
A--------------------------
E--------------------------

SOLO 3
               
E---------15-12----------------------------
B--15^15--------15-12----------------------  
G-----------------------14-12-14^-12-------  
D------------------------------------------  
A------------------------------------------ 
E------------------------------------------  

               
E------------------------------------------
B------------------------------------------
G-----------12^---------12^------------12^-
D-14-12-14-----14-12-14-------14-12-14-----
A------------------------------------------
E------------------------------------------
                                               
E----------------------------------------  
B----------------------------------------  
G---------------------------------------- 
D-13-12---P-----P------------------------ 
A-------14-12-14-10---------------------- 
E-------------------12-10-12------------- 


                                                   
E-4p0-0p5p0-0-7p0-0-9p0-0-7p0-0-9p0-0-11p0-0-9p0-0-11p0--
B--------------------------------------------------------
G--------------------------------------------------------
D--------------------------------------------------------
A--------------------------------------------------------
E--------------------------------------------------------


E-0-12p0-0-14p-0-p12p-0-p14p-0-p16p-0--
B--------------------------------------
G--------------------------------------
D--------------------------------------
A--------------------------------------
E--------------------------------------

E-p17p-0-p16p-0-p17p-0-p16p-0-p17p-0-p22^--
B------------------------------------------
G------------------------------------------
D------------------------------------------
A------------------------------------------
E------------------------------------------

Play chorus again here

outro
E----------------------------------------------------0-22^------
B----15^----12-15-12-11-14-11-10-13-10-9-12-9-8-11-8------------
G---------------------------------------------------------------
D-------------------------------------------------------------2-
A-------------------------------------------------------------2-
E-------------------------------------------------------------0-
Comments