Darkness - I Believe In A Thing Called Love Chords & Tabs

 

I Believe In A Thing Called Love Chords & Tabs

Darkness Chords & Tabs

Version: 12 Type: Tab 0 ratings
1 star 2 stars 3 stars 4 stars 5 stars
comments

I Believe In A Thing Called Love Tab

   
-------------------------------------------------------------------------------
		I BELIEVE IN A THING CALLED LOVE - The Darkness
-------------------------------------------------------------------------------
Tabbed by:LIAM SANDS
Email:LIAM_SANDS@HOTMAIL.COM
Tuning:STANDARD TUNING
Info: I THINK THIS IS 100% accurate , PERMISSION TO LAND
PLEASE NOTE: This is my fist TAB so if you think there is any mistakes please E-mail me...

INTRO:    TEMPO=160

e|---------------------------------------------------------------------------|
B|---------------------------------------------------------------------------|
G|---------------------------------------------------------------------------|
D|----2--2--4----4--4--4----------4--4--2--2-----2---------------------------|
A|-2--0--0--2----2--2--2--2----2--2--2--0--0-----0--2--4-----4---------------|
E|-4----------------------0----0--------------4-----------0--2---------------|

e|-------------------0--0--------5--5----------------------------------------|
B|-------4--4--4--4--0--0--4--4--2--2----------------------------------------|
G|-------4--4--4--4--1--1--4--4--2--2----------------------------------------|
D|-2--2--4--4--4--4--2--2--4--4--2--2----------------------------------------|
A|-2--0--2--2--2--2--2--2--2--2--0--0-----0--2--4----------------------------|
E|-0-----------------0--0--------------4-----------0-------------------------|
There's your introduction you can play it like that which is the real way or
just play the first line twice.. it is alot easier and doesn't sound much different
so its up to you...

VERSE:

e|-2-------------------------------------------------------------------------|
B|-2-----------------4--4----------4--4--------------------------------------|
G|-2----2--2--4--4---4--4----------4--4--2--2--------------------------------|
D|-4----2--2--4--4---4--4----------4--4--2--2--------------------------------|
A|-4----0--0--2--2---2--2--2----2--2--2--0--2-----0--2--4--------------------|
E|-2-----------------------0----0--------------4-----------0-----------------|

e|-2-------------------------------------------------------------------------|
B|-2--------4--4--4--4---------4--4--2--2-----2------------------------------|
G|-2--2--2--4--4--4--4---------4--4--2--2-----2------------------------------|
D|-4--2--2--4--4--4--4---------4--4--2--2-----2------------------------------|
A|-4--0--0--2--2--2--2--2---2--2--2--0--0-----0------------------------------|
E|-2--------------------0---0--------------4-----4--2--0---------------------|
That is the verse now remember that the verse sounds the same as the intro so if its 
easier use the first line of my TAB up to here either way sounds good and the same...

PRE-CHORUS: 

e|---------------------------------------------------------------------------|
B|---------------------------------------------------------------------------|
G|---------------------------------------------------------------------------|
D|---------------------------------------------------------------------------|
A|---------------------------------------------------------------------------|
E|-0--0--0--2--2--2--2--2--2--2--2--2--2--2--2--0--0--0--2--2--2--2----------|

e|---------------------------------------------------------------------------|
B|---------------------------------------------------------------------------|
G|----------------------------------------------2--3--3--3-------------------|
D|----------------------------------------------2--3--3--3-------------------|
A|----------------------------------------------0--1--1--1-------------------|
E|-2--2--2--2--2--2--2--2--0--0--0--2--2--2--0--0--1--1--1-------------------|

e|---------------------------------------------------------------------------|
B|-4--4--4--4--4--4--4--4--4--4--4--4--4--4----------------------------------|
G|-4--4--4--4--4--4--4--4--4--4--4--4--4--4----------------------------------|
D|-4--4--4--4--4--4--4--4--4--4--4--4--4--4--2\------------------------------|
A|-2--2--2--2--2--2--2--2--2--2--2--2--2--2----------------------------------|
E|-2--2--2--2--2--2--2--2--2--2--2--2--2--2----------------------------------|

CHORUS: 

e|---------------------------------------------------------------------------|
B|---------------------------------------------------------------------------|
G|---------------------------------------------------------------------------|
D|----------2-----------------4-----4-----------2-----------------4-----4----|
A|----------0--------2-----0--2--4--2-----------0--------4-----0--2--4--2----|
E|-0--2--4-----4--0--4--4---------------0--2--4----4--0--2--4----------------|

e|---------------------------------------------------------------------------|
B|--------------------------------------------------------7--7--7------------|
G|--------------------------------------------------------7--7--7------------|
D|----------2-----------------4-----4\--2--6--6--4--6--7--7--7--7------------|
A|----------0--------4-----0--2--4--2\-----4--4--2--4--5--5--5--5------------|
E|-0--2--4-----4--0--2--4------------------4--4--2--4--5--5--5--5------------|

BRIDGE:

e|---------------------------19--(19)--16------------------------------0-----|
B|-17--17--------------------21--(21)--17--17--------------4--4--4--4--0-----|
G|-17------17--17--(17)--16----------------16--------2-----4--4--4--4--1-----|
D|---------------------------------------------------2--2--4--4--4--4--2-----|
A|------------------------------------------------4--0--0--2--2--2--2--2-----|
E|------------------------------------------------2--------------------0-----|

e|-0--------5--5-------------------------------------------------------------|
B|-0--4--4--2--2-------------------------------------------------------------|
G|-1--4--4--2--2-------------------------------------------------------------|
D|-2--4--4--2--2-------------------------------------------------------------|
A|-2--2--2--0--0-----0--2--4-------------------------------------------------|
E|-0--------------4-----------o----------------------------------------------|

SOLO:

e|-0--0-----0-----0------7-----7-------------------0--0----------------------|
B|-------5-----5-----7/-----7-----7--(7)--5--7--5--4--2--0-------------------|
G|---------------------------------------------------------------------------|
D|---------------------------------------------------------------------------|
A|---------------------------------------------------------------------------|
E|---------------------------------------------------------------------------|

e|---------------------------------------------------------------------------|
B|---------------------------------------------------------------------------|
G|-1--2--4--4--\-------------------------------------------------------------|
D|----------------6--6--6--4--2----------------------------------------------|
A|-------------------------------4--2/4--4--4/6--4--2------------------------|
E|---------------------------------------------------------------------------|

e|-------0-------------------------------------------------------------------|
B|----------0-----------0--0/--10--10--10--10--9-----------------------------|
G|-------------1--1--2---------12--12--12--12--11----------------------------|
D|-2--2----------------------------------------------------------------------|
A|---------------------------------------------------------------------------|
E|---------------------------------------------------------------------------|
[ Tab from: http://www.guitartabs.cc/tabs/d/darkness/i_believe_in_a_thing_called_love_tab_ver_12.html ]
e|-9----------9-----9--------9-----------------------------------------------|
B|----9--9-------9-----12-9-----12-9------9----------------------------------|
G|-------11/--------------------------11-----11-9------9--9------------------|
D|-------------------------------------------------11------------------------|
A|---------------------------------------------------------------------------|
E|---------------------------------------------------------------------------|

e|---------------------------------------------------------------------------|
B|-----------------------9------9--9------9------9---------------------------|
G|-11--9------9----------9------9--9------9------9---------------------------|
D|--------11-----11------9------9--9------9--11-----11--9--11----------------|
A|-------------------11-----11--------11-------------------------------------|
E|---------------------------------------------------------------------------|

e|---------------------------------------------------------------------------|
B|-9--9--9--9--9/10/12--12---------------------------------------------------|
G|-9--9--9--9--9/11/13--13---------------------------------------------------|
D|---------------------------------------------------------------------------|
A|---------------------------------------------------------------------------|
E|---------------------------------------------------------------------------|

PRE-CHORUS:

e|---------------------------------------------------------------------------|
B|---------------------------------------------------------------------------|
G|---------------------------------------------------------------------------|
D|---------------------------------------------------------------------------|
A|---------------------------------------------------------------------------|
E|-0--0--0--2--2--2--2--2--2--2--2--2--2--2--2--0--0--0--2--2--2--2----------|

e|---------------------------------------------------------------------------|
B|---------------------------------------------------------------------------|
G|----------------------------------------------2--3--3--3-------------------|
D|----------------------------------------------2--3--3--3-------------------|
A|----------------------------------------------0--1--1--1-------------------|
E|-2--2--2--2--2--2--2--2--0--0--0--2--2--2--2--0--1--1--1-------------------|

e|---------------------------------------------------------------------------|
B|-4--4--4--4--4--4--4--4--4--4--4--4--4--4----------------------------------|
G|-4--4--4--4--4--4--4--4--4--4--4--4--4--4----------------------------------|
D|-4--4--4--4--4--4--4--4--4--4--4--4--4--4---2\-----------------------------|
A|-2--2--2--2--2--2--2--2--2--2--2--2--2--2----------------------------------|
E|-2--2--2--2--2--2--2--2--2--2--2--2--2--2----------------------------------|

CHORUS:
2
e|-0--0--4--4--2--0--0--0--4--4--2-----0--------0--------4-----4--2----------|
B|-2--2--5--5--4--2--2--2--5--5--4-----2--------2--------5-----5--4----------|
G|-2--2--4--4--4--2--2--2--4--4--4-----2--------2--------4-----4--4----------|
D|----4-----------------4-----------2-----2--2--4--2--2-----2-----2----------|
A|---------------------------------------------------------------------------|
E|---------------------------------------------------------------------------|
YOU DONT HAVE TOPLAY IT LIKE THIS YOU CAN PLAY IT THE SAMEAS THE FIRST CHORUS AS IT MAKES
NO DIFFERENCE...

SOLO 2:

e|-14\--14--14\--------------------------------------------------------------|
B|-15\--15--15\--17--15------------------------------------------------------|
G|-----------------------16--15--16--15--14--12--14\--12---------------------|
D|--------------------------------------------------------14--12--14---------|
A|---------------------------------------------------------------------------|
E|---------------------------------------------------------------------------|

e|-4--0--0--5--0--0--7--0--0--9--0--0--7--0--9--0----------------------------|
B|---------------------------------------------------------------------------|
G|---------------------------------------------------------------------------|
D|---------------------------------------------------------------------------|
A|---------------------------------------------------------------------------|
E|---------------------------------------------------------------------------|

e|-11--0--9--0--11--0--12--0--14--0--12--0--14--0--16--0---------------------|
B|---------------------------------------------------------------------------|
G|---------------------------------------------------------------------------|
D|---------------------------------------------------------------------------|
A|---------------------------------------------------------------------------|
E|---------------------------------------------------------------------------|

e|-17--0--0--16--0--0--19--0--0--16--0--0--17--0--0--0--0--0--22\----(22)----|
B|---------------------------------------------------------------------------|
G|---------------------------------------------------------------------------|
D|---------------------------------------------------------------------------|
A|---------------------------------------------------------------------------|
E|---------------------------------------------------------------------------|

OUTRO:

e|---------------------------------------------------------------------------|
B|---------------------------------------------------------------------------|
G|---------------------------------------------------------------------------|
D|----------2-----------------4-----------------2----------------------------|
A|----------0--------4-----0--2--4--2-----------0--------4-------------------|
E|-0--2--4-----4--0--2--4-----2--------0--2--4-----4--0--2-------------------|

e|---------------------------------------------------------------------------|
B|---------------------------------------------------------------------------|
G|---------------------------------------------------------------------------|
D|-------4-----------------2------------------4------------------------------|
A|----0--2--4--2-----------0---------4-----0--2--4--2------------------------|
E|-4-----2--------0--2--4------4--0--2--4-----2------------------------------|

e|-----------------------------------------11\10-----------------------------|
B|---------------------------------------------------------------------------|
G|---------------------------------------------------------------------------|
D|----------0-----------------4----------------------------------------------|
A|----------2--------4-----0--2--4--2----------------------------------------|
E|-0--2--4-----4--0--2--4-----2----------------------------------------------|

e|-7--10--7--6--9--6--5--8--5--4--7--4--3--6--3--1--4--1---------12-----0-----|
B|----------------------------------------------------------------------0-----|
G|----------------------------------------------------------------------1-----|
D|----------------------------------------------------------------------2-----|
A|----------------------------------------------------------------------2-----|
E|----------------------------------------------------------------------0-----|

THANKS FOR LOOKING AT THE TAB THERE WILL BE SOME MORE TABS FROM ME IN THE FUTURE..
I HOPE YOU ENJOYED THIS TAB AND THAT IT WASNT TOO HARD FOR YOU TO LEARN, THIS IS MY FIRST
TAB OF MANY SO ANY QUERIES THEN E-MAIL ME @  liam_sands@hotmail.com . 


| /  slide up
| \  slide down
| h  hammer-on
| p  pull-off
| ~  vibrato
| +  harmonic
| x  Mute note
===============================================================================
Comments