Darkness - I Believe In A Thing Called Love Chords & Tabs

 

I Believe In A Thing Called Love Chords & Tabs

Darkness Chords & Tabs

Version: 11 Type: Tab 0 ratings
1 star 2 stars 3 stars 4 stars 5 stars
comments

I Believe In A Thing Called Love Tab

INTRO AND VERSE

e|-----------------------------------------------------------------------
B|-----------------------------------------------------------------------
G|-----------------------------------------------------------------------
D|--4--X-X---7---9-9-X-X--9-9-(0)---2-(2)---9-9-9--(0)--7----------------
A|--4--X-X---7---9-9-X-X--9-9-(0)---2-(2)---9-9-9--(0)--7----0--2--4-----
E|--2--X-X---5---7-7-X-X--7-7-(0)---0-(0)---7-7-7--(0)--5--4----------0--

THEN ON LAST BIT OF VERSE CHANGE 

---0--2--4-----
-4----------0--  

                    TO
----0---------
--4---4--2--0-


BRIDGE

e|----------------------
B|----------------------
G|----------------------
D|--2-(0)--4------------
A|--2-(0)--4-(X10 PM)---
E|--0-(0)--2------------

PLAY THIS TWICE THEN...

e|-------------------------------------------------------
B|-------------------------------------------------------
G|-------------------------------------------------------
D|--2-(0)--4-4-4-(0)--7-(0)-8-8-(0)--9-------------------
A|--2-(0)--4-4-4-(0)--7-(0)-8-8-(0)--9-(X10-14)----------
E|--0-(0)--2-2-2-(0)--5-(0)-6-6-(0)--7-------------7\0---

CHORUS

e|---------------------------
B|---------------------------
G|---------------------------
D|---------------------------
A|-------0------------2-4-2--
E|-0-2-4---4-0-2--4-0--------

SOLO 1

e|--------------------------15--------------------------------
B|--------16---16--------------16----------15---------15-15b--
G|--15/17---17---17---15~---------15--------------------------
D|-----------------------------------17h18-----13~~-----------
A|------------------------------------------------------------
E|------------------------------------------------------------

THEN BASE PLAYS MOST OF VERSE UNTIL
[ Tab from: http://www.guitartabs.cc/tabs/d/darkness/i_believe_in_a_thing_called_love_tab_ver_11.html ]
e|---------------------------------------
B|---------------------------------------
G|---------------------------------------
D|--2-(0)---9-9-9--(0)--7----------------
A|--2-(0)---9-9-9--(0)--7----0--2--4-----
E|--0-(0)---7-7-7--(0)--5--4----------0--

THEN ON LAST BIT OF VERSE CHANGE 

---0--2--4-----
-4----------0--  

                    TO
----0---------
--4---4--2--0-

NOW REPEAT BRIDGE

REPEAT CHORUS

GUITAR!!!
SOLO 2

e|--0-0-0-0-0-0---7--7--7------------------------
B|--5-5-5-5-5-5--7b-7b-7b--5h7-4-2---------------
G|---------------------------------4--1-2-4-4-4--
D|-----------------------------------------------
A|-----------------------------------------------
E|-----------------------------------------------

e|---------------------------------0-----------------
B|-----------------------------------0---------------
G|---------------------------------------0--1-2--4-4-
D|--4/6-6-6-6-4-----4-4-4-6-4-2-2--------------------
A|--------------7-4----------------------------------
E|---------------------------------------------------

e|--------------------9----9---9p7--------------------------------------
B|-/10-10-10-10-10--9--9-9--9-----9p7-9p7-------------------------------
G|---------------------------------------9p11-9p11----9---9-------9-----
D|--------------------------------------------------11--11--11-11---11--
A|----------------------------------------------------------------------
E|----------------------------------------------------------------------

e|-------------------0-----0--0--------0--0--0-0-----
B|---------------------5--------0------5--7--9-9-----
G|------------4----------4----------0--4--6--8-8-----
D|--4/6-6-6-6---6-4----------------------------------
A|---------------------------------------------------
E|---------------------------------------------------

REPEAT BRIDGE

THEN GUITAR PLAYS LITTLE REGGAE BIT WHICH I HAVENT FIGURED OUT

SOLO 3

NOT DONE YET

THEN PLAY CHORUS TILL END AND THEN A LITTLE SOLO THING AT END WHICH I HAVENT DONE YET SORRY



EMAIL ME FOR CORRECTIONS OR TIPS AND STUFF

tomred13@hotmail.com
Comments