Darkness - I Believe In A Thing Called Love Chords & Tabs

 

I Believe In A Thing Called Love Chords & Tabs

Darkness Chords & Tabs

Version: 3 Type: Bass Tab 0 ratings
1 star 2 stars 3 stars 4 stars 5 stars
comments

I Believe In A Thing Called Love Bass Tab

-----------------------------------------------------------------------------
	     I Believe in a thing called love - The Darkness
-----------------------------------------------------------------------------

Tabbed By : freeda
e-mail: kafreeda@hotmail.com

Tuning:standard

(guitar plays through intro once first)

Intro/verse
G|-----------------------------------------|
D|-----------------------------------------|
A|-----0-2-2--2-----2-2-0-0---0-2-4-0------|  x3
E|--2-----------0-0---------4--------------|

G|-----------------------------------------|
D|-----------------------------------------|
A|-----0-2-2--2-----2-2-0-0---0------------|  x1
E|--2-----------0-0---------4---4--2-0-----|

bridge
G|-----------------------------------------|
D|-----------------------------------------|
A|-----------------------------------------|  x2
E|--0-0-2-2-2-2-2-2-2-2-2-2-2-2------------|

G|---------------------------------------------------------|
D|---------------------------------------------------------|
A|---------------------------------------------------------|  x1
E|--0-0-2-2-2-2-5-5-5-5-7-7-7-7-7-7-7-7-7-7-7-7-7-7-7-7----|

chorus
G|---------------------------------|
D|---------------------------------|
A|--------0-------------2-4-2------|  x3
E|--0-2-4----4-0--2-4-2------------|

then
G|---------------------------------|
D|---------------------------------|
A|--4--4--4-4-2--5--5-5-5-5-5-5----|  x1
E|---------------------------------|

verse2
G|---------------------------------------------|
D|---------------------------------------------|
A|-----0-2-2--2-----2-2-0-0-----0-2-4-0--------|  x1
E|--2-----------0-0----------4-----------2~----|
  (pause)
G|----------------------------------|
D|----------------------------------|
A|------2-2-0-0---0-2-4-0-----------| x1
E|--0---------4----------2~---------|
  (pause)
G|----------------------------------|
D|----------------------------------|
A|------2-2-0-0---0-----------------|  x1
E|--0---------4---4-2-0-------------|
[ Tab from: http://www.guitartabs.cc/tabs/d/darkness/i_believe_in_a_thing_called_love_btab_ver_3.html ]
bridge
G|-----------------------------------------|
D|-----------------------------------------|
A|-----------------------------------------|  x2
E|--0-0-2-2-2-2-2-2-2-2-2-2-2-2------------|

G|---------------------------------------------------------|
D|---------------------------------------------------------|
A|---------------------------------------------------------|  x1
E|--0-0-2-2-2-2-5-5-5-5-7-7-7-7-7-7-7-7-7-7-7-7-7-7-7-7----|

chorus
G|---------------------------------|
D|---------------------------------|
A|--------0-------------2-4-2------|  x3
E|--0-2-4----4-0--2-4-2------------|

then
G|---------------------------------|
D|---------------------------------|
A|--4--4--4-4-2--5--5-5-5-5-5-5----|  x1
E|---------------------------------|

solo
G|-----------------------------------------|
D|-----------------------------------------|
A|-----0-2-2--2-----2-2-0-0---0-2-4-0------|  x3
E|--2-----------0-0---------4--------------|

G|-----------------------------------------|
D|-----------------------------------------|
A|-----0-2-2--2-----2-2-0-0---0------------|  x1
E|--2-----------0-0---------4---4--2-0-----|

bridge
G|-----------------------------------------|
D|-----------------------------------------|
A|-----------------------------------------|  x2
E|--0-0-2-2-2-2-2-2-2-2-2-2-2-2------------|

G|---------------------------------------------------------|
D|---------------------------------------------------------|
A|---------------------------------------------------------|  x1
E|--0-0-2-2-2-2-5-5-5-5-7-7-7-7-7-7-7-7-7-7-7-7-7-7-7-7----|

(justin sings with drums)

then
G|---------------------------------|
D|---------------------------------|
A|--4--4--4-4-2--5--5-5-5-5-5-5----|  x1
E|---------------------------------|


chorus
G|---------------------------------|
D|---------------------------------|
A|--------0-------------2-4-2------|  x8
E|--0-2-4----4-0--2-4-2------------|

end on E string.

| ~ = let ring

this is my first tab so please rate it.
if you find any corrections that need to be made please e-mail.me
=============================================================================
Comments