Darkness - Growing On Me Chords & Tabs

 

Growing On Me Chords & Tabs

Darkness Chords & Tabs

Version: 7 Type: Tab 0 ratings
1 star 2 stars 3 stars 4 stars 5 stars
comments

Growing On Me Tab

Hi, folks.
This is my first tab on the web, so I'm not sure it is comprensible... Enjoy it all
you can!!!!!!!

Well, it is a very good song. It is not so difficult and it is very fun. I'm very
sure about the intro, but don't trust me about the solos! Never mind. Let's start:

Intro:
|---|-5-----5-------------------0---|
|-3-|---3-----3-----------3-------3-|
|-2-|-----2-----2-------2--(2)------|
|---|-----------------0-------------|
|---|---------------4---------------|
|---|-------------------------------|x3
The Last time:
|-5-----5-------------------0(let ring)-------------------------------|
|---3-----3-----------3-----------------------------------------------|
|-----2-----2-------2-------------------------------------------------|
|-----------------0-----------------------7---------5-4-0-5-4-0-------|
|---------------4-------------------------7---------5-4-0-5-4-0-------|
|-----------------------------------------7(ring)---5-4-0-5-4-0(ring)-|
Verse:
|----------------------------------------------------------|
|----------------------------------------------------------|
|----------------------------------------------------------|
|-5-5-0-0-7\--------------5-5-0-0-7-7X--5X-5X-4-0X-0-------|
|-5-5-0-0-7\--------------5-5-0-0-7-7X--5X-5X-4-0X-0-------|
|-5-5-0-0-7\--------------5-5-0-0-7-7X--5X-5X-4-0X-0-------|
            I can't get...              I don't know what...
|---------------------------------------------------------|
|---------------------------------------------------------|
|----------------------------------12-12-12-12-12-12-11---|
|-5-5-0-0-7\---------------------7-12-12-12-12-12-12-11---|
|-5-5-0-0-7\---------------------7------------------------|
|-5-5-0-0-7\---------------------7------------------------|
            I don't know........ On who
Repeat the verse.
At the end of the second verse, play this:
|------------------|
|------------------|
|------------------|
|-5-5-5-5-5-7-5----|
|-5-5-5-5-5-7-5----|
|-5-5-5-5-5-7-5----|Then...

Pre-Chorus:

Gtr 1
|---|-5-----5-------------------0---|
|-3-|---3-----3-----------3-------3-|
|-2-|-----2-----2-------2--(2)------|
|---|-----------------0-------------|
|---|---------------4---------------|
|---|-------------------------------|x3
The Last time:
|-5-----5-------------------0(let ring)-------------------------------|
|---3-----3-----------3-----------------------------------------------|
|-----2-----2-------2-------------------------------------------------|
|-----------------0-----------------------7---------5-4-0-5-4-0-------|
|---------------4-------------------------7---------5-4-0-5-4-0-------|
|-----------------------------------------7(ring)---5-4-0-5-4-0(ring)-|

Gtr 2
|------------------------------------------------------------------------|
|------------------------------------------------------------------------|
|------------------------------------------------------------------------|
|--5-5-5-4-0---------5-5-5-4-0--------5-5-5-4-0--------7-----5-4-0-5-4-0-|
|--5-5-5-4-0---------5-5-5-4-0--------5-5-5-4-0--------7-----5-4-0-5-4-0-|
|--5-5-5-4-0---------5-5-5-4-0--------5-5-5-4-0--------7-----5-4-0-5-4-0-|
   I've been punished.............                 but you're part of me

Chorus:
[ Tab from: http://www.guitartabs.cc/tabs/d/darkness/growing_on_me_tab_ver_7.html ]
Gtr 1
|-----|--------------------------------------------------|------------------|
|-----|--------------------------------------------------|------------------|
|-----|----12-12-12-11-11-11-9-9-9-11-11-11-11-11-11-11--|------------------|
|-----|----12-12-12-11-11-11-9-9-9-11-11-11-11-11-11-11--|-7---5-4-0-5-4-0--|
|-----|--------------------------------------------------|-7---5-4-0-5-4-0--|
|-12\-|--------------------------------------------------|-7---5-4-0-5-4-0--|
       x3                                                 last time

Gtr 2
|-----|-------------------------|------------------|
|-----|-------------------------|------------------|
|-----|-------------------------|------------------|
|-----|--5----4-----2----4------|-7---5-4-0-5-4-0--|
|-----|--5----4-----2----4------|-7---5-4-0-5-4-0--|
|-----|--5----4-----2----4------|-7---5-4-0-5-4-0--|
       x3                        Last Time


Now, the best part of the song... I'm not sure it is correct, so if you find some mistakes, let me know.

Pre-Solo Gtr 2:
|------------------------------|
|------------------------------|
|-12-12-11-11X-11X-9-9--11-11--|
|-12-12-11-11X-11X-9-9--11-11--|
|------------------------------|
|------------------------------|x2
(the second time is a bit different, but they are the same notes)

Solo 1:
|-----|
|-----|
|-----|
|-----|
|-----|
|-15\-|

|---------------------------------------------------------------------------|
|---------------------------------7-8-10-8-7-------19-19-19-19---15-17-17br-|
|----------------------7-7-9-7-9br-----------9-9br-------------16-----------|
|---------------------------------------------------------------------------|
|5-5-0-5-5-7br-5-7br-5------------------------------------------------------|
|---------------------------------------------------------------------------|

|------19(ring)-17-15-14h15h14----------------|
|-15---------------------------17(RRRING!)----|
|---------------------------------------------|
|---------------------------------------------|
|---------------------------------------------|
|---------------------------------------------|

Did you understand? Ok, now you can repeat the chorus again and play the second
solo....I guess it's less accurate than the first, so if you have some suggestions, please help me!!!!!

Solo 2:
|-----------------------------------------------------------------------------|
|-----------------------------------------------------------------------------|
|-----------------------------------------------------------------------------|
|-----------------------12X-12X-11----14~14~14~14~-12-16~16~16h14h12-14h12h11-|
|-5----9-7-5-5-7-9h7-7-------------12-----------------------------------------|
|-----------------------------------------------------------------------------|

|--------------------------------------------------------------12-12-12-12----|
|------------------------------------------------15--12-12-----------------15-|
|---------------------------------------------------------14------------------|
|-12h11h9-------------------11-9-------9-11h9-11------------------------------|
|---------12~----12-12-12--------12-12----------------------------------------|
|-----------------------------------------------------------------------------|

|--17--17--17--17--17---------------|
|19--19--19--19--19--19(ring!!)-----|
|-----------------------------------|
|-----------------------------------|
|-----------------------------------|
|-----------------------------------|

And what about the second guitar? Well, during the solo it plays the chorus chords....
Or so I think.

Then, the solo fades into the end.

That's all, folks. Try to jam with it, however I'm sure it is a shit... Try anyway.

Did you enjoy my first tablature on the web?
Questions? Comments? Mistakes? Offenses? Write me for anything!
Let me know what do you think about it!!!!!!!
Write to me: donata.greco@dealoe-greco.com
I will be happy to read every kind of e-mail.
Have fun.
*|^/Donatrottola\^|*
Comments