Darkness - Growing On Me Chords & Tabs

 

Growing On Me Chords & Tabs

Darkness Chords & Tabs

Version: 1 Type: Tab 0 ratings
1 star 2 stars 3 stars 4 stars 5 stars
comments

Growing On Me Tab

the darkness are a fuckin awsome fairly new band and i love this song
there website is here http://www.thedarknessrock.com

tuning is drop d
im not 100% sure on the intro sounds ok to me just pick roughly what ive put here
play this twice with light distortion then drums kick in and play it once with
heavy distortion

------5-----5----------------5--------5----/---------------------------
--------5-----5----------------5----5------/---play the on-fourth time-
------------------7--------6------7--------/---------------------------
----------7-----7--------7-----------------/---7------5-4-0-5-4-0------
---5---------------------------------------/---7------5-4-0-5-4-0------
-------------------------------------------/---7------5-4-0-5-4-0------

verse
-----------------------------------------------------------------------
-----------------------------------------------------------------------
-----------------------------------------------------------------------
--0-0-7-7-9-9-------0-0-7-7-9-9--5-5-5-4-0-----------------------------
--0-0-7-7-9-9-------0-0-7-7-9-9--5-5-5-4-0-----------------------------
--0-0-7-7-9-9-------0-0-7-7-9-9--5-5-5-4-0-----------------------------
             words here!         and here!

-----------------------------------------------------------------------
-----------------------------------------------------------------------
-----------------------------------------------------------------------
--0-0-7-7-9-9--------7----5-4-0-5-4-0----------------------------------
--0-0-7-7-9-9--------7----5-4-0-5-4-0----------------------------------
--0-0-7-7-9-9--------7----5-4-0-5-4-0----------------------------------
             words!

pre-chorus

------------------------------------------------------------------------
------------------------------------------------------------------------
------------------------------------------------------------------------
--5-5-5-4-0~~-------5-5-5-4-0~~------5-5-5-4-0~~------7-----5-4-0-5-4-0-
--5-5-5-4-0~~-------5-5-5-4-0~~------5-5-5-4-0~~------7-----5-4-0-5-4-0-
--5-5-5-4-0~~-------5-5-5-4-0~~------5-5-5-4-0~~------7-----5-4-0-5-4-0-
   im been punished.............                 but your leavin meeeeee
[ Tab from: http://www.guitartabs.cc/tabs/d/darkness/growing_on_me_tab.html ]
chorus
------------------------------------------------------------------------
------------------------------------------------------------------------
------------------------------------------------------------------------
--4-4-4-5-5-5-5-5-7-7-7-0-0-0-0-0------9-9-9-0-0-0-0-0-7-7-7-0-0-0-0-0--
--4-4-4-5-5-5-5-5-7-7-7-0-0-0-0-0------9-9-9-0-0-0-0-0-7-7-7-0-0-0-0-0--
--4-4-4-5-5-5-5-5-7-7-7-0-0-0-0-0------9-9-9-0-0-0-0-0-7-7-7-0-0-0-0-0--
  your really growin on me              your really growin on me

------------------------------------------------------------------------
------------------------------------------------------------------------
------------------------------------------------------------------------
--4-4-4-5-5-5-5-5-7-7-7-0-0-0-0-0----------7----5-4-0-5-4-0-------------
--4-4-4-5-5-5-5-5-7-7-7-0-0-0-0-0----------7----5-4-0-5-4-0-------------
--4-4-4-5-5-5-5-5-7-7-7-0-0-0-0-0----------7----5-4-0-5-4-0-------------
  your really growin on me

interlude - play twice
------------------------------------------------------------------------
-----8-8-7-7-5-7-7-7----------------------------------------------------
-----7-7-7-7-7-7-7-7----------------------------------------------------
-----7-7-7-7-7-7-7-7----------------------------------------------------
------------------------------------------------------------------------
------------------------------------------------------------------------     

solo bit
------------------------------------------------------------------------
----------------------------------------10p7-10p7-10b12-----------------
---------------------------7-x-9-7-9b11---------------------------------
------------------------------------------------------------------------
---5-x-7-5-7b9hb9rb7-5--------------------------------------------------
------------------------------------------------------------------------

----------------------------------------17b19hb~~~17-15-14h15p14--------
--17b19-17b19r17-15~~17-19p17-15---------------------------------17~~~~-
------------------------------------------------------------------------
------------------------------------------------------------------------
------------------------------------------------------------------------
------------------------------------------------------------------------

then play the chorus again and then theres another solo which uses mostly the
same notes as the solo above.

i havent put the rhythem in and if ive missed off occasional notes its cos im
lazy so get over it, dont have a go at me. comments please if you can be bothered
Comments