Darkness - Get Your Hands Off My Woman Chords & Tabs

 

Get Your Hands Off My Woman Chords & Tabs

Darkness Chords & Tabs

Version: 2 Type: Tab 0 ratings
1 star 2 stars 3 stars 4 stars 5 stars
comments

Get Your Hands Off My Woman Tab

   
tuning low to high - e, a, d, g, b, e

intro/bit before solo - dont know the effect but i find hitting 
the body of the guitar whilst bending the strings sounds close

|------------|
|------------|
|-7~~~~5~~~~-|
|-7~~~~5~~~~-|
|-5~~~~3~~~~-|
|------------|

|----------------------------------------------------|
|----------------------------------------------------|
|-7-7---------5-5-5---------7-7---------5-5--5-------|
|-7-7-8-8\3-3-5-5-5-5-5\3-3-7-7-8-8\3-3-5-5--5-------|  x2
|-5-5-8-8\3-3-3-3-3-5-5\3-3-5-5-8-8\3-3-3-3--3-0-3-4-|
|-----6-6\1-1-------3-3\1-1-----6-6\1-1--------------|

verse 1
|-----------------------------------------------------------------|
|-----------------------------------------------------------------|
|-7-7-7-7-7-7-7-7-7-7-7-7-7-7-7-7-7-7-7-7-7-7-7-7-7-7-7-----------|
|-------------------------------------------------------3-5-5-3-3-|
|-5-5-5-5-5-5-5-5-5-5-5-5-5-5-5-5-5-5-5-5-5-5-5-5-5-5-5-3-5-5-3-3-| x2
|-------------------------------------------------------1-3-3-1-1-|

bridge
|----------------------------------3-3-3-3-3-3-3-3-3-3-3-3-3-3-3-3-|
|----------------------------------3-3-3-3-3-3-3-3-3-3-3-3-3-3-3-3-|
|----------------------------------4-4-4-4-4-4-4-4-4-4-4-4-4-4-4-4-|
|-5-5-3-5\-------3-5-5-3-5\--------5-5-5-5-5-5-5-5-5-5-5-5-5-5-5-5-|
|-5-5-3-5\-------3-5-5-3-5\--------5-5-5-5-5-5-5-5-5-5-5-5-5-5-5-5-|
|-3-3-1-3\-------1-3-3-1-3\--------3-3-3-3-3-3-3-3-3-3-3-3-3-3-3-3-|

|----------------------------|
|----------------------------|
|----------------------------|
|-2-2--3-3--4-4--5-5-6-7-8-9-|
|-2-2--3-3--4-4--5-5-6-7-8-9-|
|-0-0--1-1--2-2--3-3-4-5-6-7-|

chorus
|----------------------------------------------------|
|----------------------------------------------------|
|-7-7---------5-5-5---------7-7---------5-5--5-------|
|-7-7-8-8\3-3-5-5-5-5-5\3-3-7-7-8-8\3-3-5-5--5-------|
|-5-5-8-8\3-3-3-3-3-5-5\3-3-5-5-8-8\3-3-3-3--3-0-3-4-|
|-----6-6\1-1-------3-3\1-1-----6-6\1-1--------------|

middle section
|---------|      |----------------|
|---------|      |----------------|
|-7-7-7-7-|      |-10-12-12-10-10-|
|---------| x8   |-10-12-12-10-10-|
|-5-5-5-5-|      |--8-10-10--8--8-|
|---------|      |----------------|
[ Tab from: http://www.guitartabs.cc/tabs/d/darkness/get_your_hands_off_my_woman_tab_ver_2.html ]
verse 2
   |-----------------|----------------|
   |-----------------|----------------|
   |-7--7--7-7----7--|-10-12-12-10-10-|
   |-7--7--7-7----7--|-10-12-12-10-10-|
   |-555555555555555-|--8-10-10--8--8-|
   |-----------------|----------------|
p.m.  ^^ ^^ ^ ^^^^ ^

bridge
|----------------------------------------3333333333333333----------|
|----------------------------------------3333333333333333----------|
|----------------------------------------4444444444444444----------|
|-5-5-3-5\-------3-5-5-3-5\--------------5555555555555555----------|
|-5-5-3-5\-------3-5-5-3-5\--------------5555555555555555------3---|
|-3-3-1-3\-------1-3-3-1-3\--------------3333333333333333----------|

|----------------------------|
|----------------------------|
|----------------------------|
|-2-2--3-3--4-4--5-5-6-7-8-9-|
|-2-2--3-3--4-4--5-5-6-7-8-9-|
|-0-0--1-1--2-2--3-3-4-5-6-7-|

chorus
|----------------------------------------------------|
|----------------------------------------------------|
|-7-7---------5-5-5---------7-7---------5-5--5-------|
|-7-7-8-8\3-3-5-5-5-5-5\3-3-7-7-8-8\3-3-5-5--5-------|
|-5-5-8-8\3-3-3-3-3-5-5\3-3-5-5-8-8\3-3-3-3--3-0-3-4-|
|-----6-6\1-1-------3-3\1-1-----6-6\1-1--------------|

solo
|-------------------------------------------------|
|-------------------------------------------------|
|-3h0-----3h0-----3h0-----3h0-----3h0-----3h0-----|
|-----3h0-----3h0-----3h0-----3h0-----3h0-----3h0-|
|-------------------------------------------------|
|-------------------------------------------------|

|-------------------------------------------------|
|-------------------------------------------------|
|-4h0-----4h0-----4h0-----4h0-----4h0-----4h0-----|
|-----3h0-----3h0-----3h0-----3h0-----3h0-----3h0-|
|-------------------------------------------------|
|-------------------------------------------------|

|-------------------------------------------------------------------------|
|-------------------------------------------------------------------------|
|-6(6.5)--4-------------4-6-4-6(6.5)--9--10--12--14--15-17-19-21-21(21.5)-|
|-----------6-4-6---6^4---------------------------------------------------|
|-------------------------------------------------------------------------|
|-------------------------------------------------------------------------|

p=pull off
\=slide down
notes in ()=bend previously played string to up to point in ()

any comments etc email me nameandnumberhere@hotmail.com
Comments