Darkness - Friday Night Chords & Tabs

 

Friday Night Chords & Tabs

Darkness Chords & Tabs

Version: 2 Type: Tab 0 ratings
1 star 2 stars 3 stars 4 stars 5 stars
comments

Friday Night Tab

   
tuning low to high - e,a,d,g,b,e

capo 2nd fret

intro

|---------------------------------------------------------|
|-3-3-2-0---0-------------3-3---2-------------------------|
|-2-------2---0---0---0---------------0---------0-0-0-0-0-|
|-0-----------------4---4-----------2---2-2-2-2-2-2-2-2-2-|
|-0---------------------------0---0-----0-0-0-0-0-0-0-0-0-|
|---------------------------------------------------------|

verse 1

|------------------------------------------|
|-0--2------2--2---------------------------|
|-0--2------2--2----2----2------2----2-----|
|-0--2------2--2----2----2------2----2-----|
|----0------0--0----0----------------------|
|-3-------------------2------2----------3--|

|-3----------------0------------------------------|
|-3---------0------0------------------------------|
|-0-----------2----0----------------------2-----2-|
|-0------0------4--2------------2--0--2-4----4--2-|
|-----------------------------------------------0-|
|-------------------------------------------------|


|-----------------------------------|
|-----------------------------------|
|-2---2-------------2-----2----2----|
|-2---2-------------2-----2----2----|
|-0---0-----------------------------|
|----------0--2--------2----------3-|


|-3------------------0--------------------0-|
|----3------0--------0--------2-----3-------|
|-------0------2-----0-----------0----------|
|-----------------4--2-----2-----------2----|
|-------------------------------------------|
|-------------------------------------------|


chorus

|-2---3---2-3---2---2---3---2-3---2---2-3--2-3-2-0-0---0---0---0-|
|-3---3---3-3---3---3---3---3-3---3---3-3--3-3-3-5---5---5---5---|
|-2---2---2-2---2---2---2---2-2---2---2-2--2-2-2-----------------|
|----------------------------------------------------------------| x2
|----------------------------------------------------------------|
|----------------------------------------------------------------|


verse 2

|-0---0---0--0----2----2--2---2--2--------|
|-2---2---2--2----3----2--2---2--3--------|
|-2---2---2--2----2----2--2---2--2-----0--|
|--------------------------------------0--|
|-----------------------------------------|
|--------------------------------------3--|

|-3------------------0-------------------------|
|----3-----0---------0-------------------------|
|-------0-----2------0-----------------2-----2-|
|----------------4---2-------2--0--2-4----4--2-|
|--------------------------------------------0-|
|----------------------------------------------|

|-----------------2----2--2---2---2--2--------|
|-2--2-----2------3----3--3---2---2--3--------|
|-2--2-----2------2----2--2---2---2--2----0---|
|-2--2-----2------------------------------0---|
|----0-----0----------------------------------|
|-----------------------------------------3---|

|-3------------------0--------------------0-|
|-----------0--------0--------2-----3-------|
|----0---------2-----0-----------0----------|
|-----------------4--2-----2-----------2----|
|-------------------------------------------|
|-------------------------------------------|

chorus x2


bridge

|---------------------------------------------0---------|
|-3--3--2-0----0--------------3-3---2-------2---2-------|
|-2---------2----0----0---0---------------0-------0-----|
|-0---------------------4---4-----------2-----------2---|
|---------------------------------0---0---------------0-|
|-------------------------------------------------------|

|--------------------------------------------------0---------|
|-----3---3--2-0----0--------------3-3---2-------2---2-------|
|---2------------2----0----0---0---------------0-------0-----|
|-0--------------------------4---4-----------2-----------2---|
|--------------------------------------0---0---------------0-|
|------------------------------------------------------------|


solo 1   2 guitars played together

guitar 1
|------------------------------------------------------|
|-------5/7-------------------------------------7-7----|
|-----------------9-7--6----7------------------------9-|
|-7-----------------------------9-------9-7-9-7--------|
|------------------------------------------------------|
|------------------------------------------------------|

|----------------------------------------------------------|
|----------------5/7-----------------------------7-7--7/10-|
|------------------------9-7--6--7-------------------------|
|--7----9-7------------------------9-----9-7-9-7-----------|
|----------------------------------------------------------|
|----------------------------------------------------------|
[ Tab from: http://www.guitartabs.cc/tabs/d/darkness/friday_night_tab_ver_2.html ]
guitar 2
|------------------------------------------------------|
|------------------------------------------------------|
|-------5/7-------6-4-------4-------------------7-7--6-|
|-4--------------------7--------5-------5-4-5-4--------|
|------------------------------------------------------|
|------------------------------------------------------|

|----------------------------------------------------------|
|------------------------------------------------3-3--3/5--|
|----------------5/7-----6-4-----4-------------------------|
|--4----5-4-------------------7----5-----5-4-5-4-----------|
|----------------------------------------------------------|
|----------------------------------------------------------|


chorus x2
during the second time a guitar comes in playing
|-5--0-----0-|
|--------3---|
|------------|
|------------|
|------------|
|------------|


solo 2     2 guitars

guitar 1
|---------------------------------------------------------------------|
|-7---7/10----------10--10-8-7--8--7--5-7-5-----5(6)--5-3---3-5(6)--5-|
|-------------------------------------------7-------------4-----------|
|---------------------------------------------------------------------|
|---------------------------------------------------------------------|
|---------------------------------------------------------------------|

|guitar 1
|-----------------------------------------3-----3-5---\--|
|--------------3--------------3-5-7-3-5-7---3-7----------|
|-2-----2(3)-------(3)2----------------------------------|
|--------------------------------------------------------|
|--------------------------------------------------------|
|--------------------------------------------------------|
|
|
|guitar 2
|--------------10----------------------------------------|
|-------10(11)----(11)10\--------------------------------|
|--------------------------------------------------------|
|--------------------------------------------------------|
|--------------------------------------------------------|
|--------------------------------------------------------|

|guitar 1
|--------------------------------------|
|-14(15)--10--10-14(15)--10-14(15)--14-|
|--------------------------------------|
|--------------------------------------|
|--------------------------------------|
|--------------------------------------|
|
|
|guitar 2
|-12(13)--10--10-12(13)--10-12(13)--12-|
|--------------------------------------|
|--------------------------------------|
|--------------------------------------|
|--------------------------------------|
|--------------------------------------|

|guitar 1
|---------------------------------------------------------------------------|
|-14-15-14-12-14-12\10-12-10\8-10-8\7-8-7\5-7-5\3\2-0--------5(6)-5-3-2-3---|
|-----------------------------------------------------2-0-----------------4-|
|---------------------------------------------------------4-0---------------|
|---------------------------------------------------------------------------|
|---------------------------------------------------------------------------|
|
|
|guitar 2
|-12-14-12-10-12-10\9--10-9\7--9--7\5-7-5\3\2-------------------------------|
|---------------------------------------------------------------------------|
|---------------------------------------------------------------------------|
|---------------------------------------------------------------------------|
|---------------------------------------------------------------------------|
|---------------------------------------------------------------------------|

|guitar 1
|------------------------------------------------------------|
|----------------/7--7--5----7------------/7---5-3\2----3----|
|-2-4--2--2-4--2---------------------2---------------------4-|
|---------------------------------4--------------------------|
|------------------------------------------------------------|
|------------------------------------------------------------|
|
|
|guitar 2
|------------------------------------------------------------|
|------------------------------------------------------------|
|-----------------7--7--6----------------5/7---6-4-2----4----|
|--5---4---5---4------------------2--4---------------------5-|
|------------------------------------------------------------|
|------------------------------------------------------------|

|guitar 1
|------------------------------------------------------------|
|----------------/7--7--7/10---7---5---7\5\3\2--2--2(2.5)--3-|
|-2-4--2--2-4--2---------------------------------------------|
|------------------------------------------------------------|
|------------------------------------------------------------|
|------------------------------------------------------------|
|
|
|guitar 2
|------------------------------------------------------------|
|------------------------/10---7---5---7\5\3\2--2--2(2.5)--3-|
|-----------------7--7---------------------------------------|
|--5---4---5---4---------------------------------------------|
|------------------------------------------------------------|
|------------------------------------------------------------|

/ = slide up
\ = slide down
notes in brackets bend previously played note to this point
Comments