Darkness - Black Shuck Chords & Tabs

 

Black Shuck Chords & Tabs

Darkness Chords & Tabs

Version: 2 Type: Tab 0 ratings
1 star 2 stars 3 stars 4 stars 5 stars
comments

Black Shuck Tab

   
----------------------------------------------------------------------------
			     Black Shuck- Darkness
----------------------------------------------------------------------------
Tabbed by:Adam Smith
Email:Gameshark4@hotmail.com

Tuning:E,A,D,G,B,E


intro-
      E5           A5     E5    D5/A       B5    D5/A     A5   G5
e|--------------------------------------------------------------3-----------|
B|----------------------------3------------------------3--------3-----------|
G|----------------------------2------------------------2---2-x--0-----------|
D|-----------------2----------0---------------4--------0---2-x--0-----------|
A|----------22--2220---22-222-0---2-2---2-2-2-2--0-----0---0-x--------------|
E|----3b----00--000----00-000-----0-0---0-0-0------3-0----------3-----------|

E5           A5     E5    D5/A       B5    D5/A     A5   G5
e|-----------------------------------------------------------3-------------|
B|---------------------------3----------------------3--------3-------------|
G|---------------------------2----------------------2---2-x--0-------------|
D|---------------2-----------0-------------4--------0---2-x--0----X5-------|
A|--------22--2220---22-222--0-2-2---2-2-2-2--0-----0---0-x----------------|
E|--------00--000----00-000----0-0---0-0-0------3-0----------3-------------|

verse-

     A5                                                           N.C
e|--------------------------------------------------------------------------|
B|----------------------------------------------------------------------3---|
G|-----------------------------------------------------------------22-2-0---|
D|--2--7---7---7--5---5---5-----3--3--3-----0----------------------22-2-2---|
A|--0----0---0------0---0----0----------0---------0--2-------0---0-00-0-0---|
E|---------------------------------------------3--------2--3---3------------|

                                                A5                 A7sus4
e|-------------------------------------3-------------------------------------|
B|---3-3----3--3--3--3--3-3---------x--3-----3-------------------------------|
G|---0-0----0--0--0--0--0-0---------x--0-----2-------------------------------|
D|---2-2----3--3--3--3--3-3---------x--0-----0-------------------------------|
A|---0-0----0--0--0--0--0-0---------x--------0-------------------------------|
E|-------------------------------------3-------------------------------------|

       A5                                                     G5
e|----------------------------------------------------------------3---------|
B|----------------------------------------------------------------3---------|
G|----------------------------------------------------------------0---------|
D|-------7----7-----7---5---7----5-----5-----5-----3--3------3----0---------|
A|---0-----0-----0------------0-----0-----0-----0---------0----0------------|
E|----------------------------------------------------------------3---------|


     D5/A                    A5
e|------------------------------------------------------------------10------|
B|----3-------------------------------------------------------------10------|
G|----2-------------------------------------------------------------11------|
D|----0-----------------------------2----7--------7----5--------------------|
A|----0---------0----5---5---5---0--0--------0------------------------------|
E|--------------------------------------------------------------------------|


Chorus-

       E5        A5        E5             D5/A        D5/A
e|--------------------------------------------------------------------------|
B|-----------------------------------3----------------------------3---------|
G|-----------------------------------2----------------------------2--2--x---|
D|-----------------2-----------------0---------------4------------0--2--x---|
A|--------2--2--2--0--2--2----2----2-0---2--2--2---2-2---0--------0-----x---|
E|----3---0--0--0-----0--0----0----0-----0--0--0---0-------3--0-------------|

   A5    G5    E5    A5   E5    D5/A            B5      D5/A         D5/A
e|--3-----------------------------------------------------------------------|
B|--3------------------------3----------------------------3--------------3--|
G|--0------------------------2----------------------------2--------------2--|
D|--0------------2-----------0-----------------4----------0--------------0--|
A|-----2--2--2-2-0--2-2-2-2--0---2--2---2---2--2--0-------0------0-------0--|
E|--3--0--0--0-0----0-0-0-0------0--0---0---0-------3--0-----------3-0------|


Bridge-

             A5
e|----------------------------------------x----------------------------------|
B|-----------0-----3----------------------x----------------------------------|
G|----------------------------------------x----------------------------------|
D|----------------------------------------x----------------------------------|
A|------2------3------------0---2--------------------------------------------|
E|---------------------3-----------2----3------------------------------------|

Middle-
       D5/A
e|---------------------------------------------------------------------------|
B|----3----------------------------------------------------------------------|
G|----2----feedback----------------------------------------------------------|
D|----0----------------------------------------------------------------------|
A|----0----------------------------------------------------------------------|
E|---------------------------------------------------------------------------|

solo-
[ Tab from: http://www.guitartabs.cc/tabs/d/darkness/black_shuck_tab_ver_2.html ]
   A7
e|--------------------------------------------------------------------------|
B|---8----11h8-11h8----8---11h8---11-----8--(8)--6--------------------------|
G|---------------------------------------------------7---5---7---5-----7----|
D|--------------------------------------------------------------------------|
A|--------------------------------------------------------------------------|
E|--------------------------------------------------------------------------|

e|----12/14--14-14-14-14-14-14----12/14-14-14-14-14-14--14--14--14--14--14--|
B|----11/13--13-13-13-13-13-13----11/13-13-13-13-13-13--13--13--13--13--10--|
G|----12/14--14-14-14-14-14-14----12/14-14-14-14-14-14--14--14--14--14--11--|
D|--------------------------------------------------------------------------|
A|--------------------------------------------------------------------------|
E|--------------------------------------------------------------------------|

e|---12/14-14-14-14-14-14--12/14-14-14-14-14--14--14----14--14---10----------|
B|---11/13-13-13-13-13-13--11/13-13-13-13-13--13--13----13--13---10----------|
G|---12/14-14-14-14-14-14--12/14-14-14-14-14--14--14----14--14---11----------|
D|---------------------------------------------------------------------------|
A|---------------------------------------------------------------------------|
E|---------------------------------------------------------------------------|

e|---12/14-14-14-14-14-14-12/14-14-14-14-14----------------------------------|
B|---11/13-13-13-13-13-13-11/13-13-13-13-13----------------------------------|
G|---12/14-14-14-14-14-14-12/14-14-14-14-14----------------------------------|
D|---------------------------------------------------------------------------|
A|---------------------------------------------------------------------------|
E|---------------------------------------------------------------------------|

e|--14-14--14--14--10--13/14-14-14-14-14-14-14-13/14-14-14-14-14-14-14-------|
B|--13-13--13--13--10--12/13-13-13-13-13-13-13-12/13-13-13-13-13-13-13-------|
G|--14-14--14--14--11--13/14-14-14-14-14-14-14-13/14-14-14-14-14-14-14-------|
D|---------------------------------------------------------------------------|
A|---------------------------------------------------------------------------|
E|---------------------------------------------------------------------------|

e|--13/14-14-14-14-14-14-14-14-14-14-14--------------------------------------|
B|--12/13-13-13-13-13-13-13-13-13-13-13--------------------------------------|
G|--13/14-14-14-14-14-14-14-14-14-14-14--------------------------------------|
D|---------------------------------------------------------------------------|
A|---------------------------------------------------------------------------|
E|---------------------------------------------------------------------------|

chorus-
    E5     A5     E5          D5/A                     B5
e|---------------------------------------------------------------------------|
B|-------------------------------3-------------------------------------------|
G|-------------------------------2-------------------------------------------|
D|----------------2--------------0--------------4----------------------------|
A|--------2--2--2-0--2-2--2--2---0---2--2--2--2-2----------------------------|
E|----3-0-0--0--0----0-0--0--0-------0--0--0--0------------------------------|

    D5/A      A5    G5      E5        A5     E5       D5/A
e|-------------------3-------------------------------------------------------|
B|-----------3-------3-----------------------------3-------------------------|
G|-----------2--2--x-0-----------------------------2-------------------------|
D|-----------0--2--x-0--------------2--------------0-------------------------|
A|--0--------0--0--x-----2--2--2--2-0--2--2--2--2--0-------------------------|
E|-----3--0----------3---0--0--0--0----0--0--0--0----------------------------|

                                  B5              D5/A   A5        G5
e|---------------------------------------3-----------------------------------|
B|----------------------------3----------3-----------------------------------|
G|----------------------------2---2---x--0-----------------------------------|
D|----------------4-----------0---2---x--0-----------------------------------|
A|---2--2--2--2---2---0-------0---0---x--------------------------------------|
E|---0--0--0--0----------3--0------------3-----------------------------------|


E5     A5     E5          D5/A                     B5
e|---------------------------------------------------------------------------|
B|-------------------------------3-------------------------------------------|
G|-------------------------------2-------------------------------------------|
D|----------------2--------------0--------------4----------------------------|
A|--------2--2--2-0--2-2--2--2---0---2--2--2--2-2----------------------------|
E|----3-0-0--0--0----0-0--0--0-------0--0--0--0------------------------------|


D5/A      A5    G5      E5        A5     E5       D5/A
e|-------------------3-------------------------------------------------------|
B|-----------3-------3-----------------------------3-------------------------|
G|-----------2--2--x-0-----------------------------2-------------------------|
D|-----------0--2--x-0--------------2--------------0-------------------------|
A|--0--------0--0--x-----2--2--2--2-0--2--2--2--2--0-------------------------|
E|-----3--0----------3---0--0--0--0----0--0--0--0----------------------------|

               B5                D5/A                E
e|--------------------------------------------------------------------------|
B|------------------------3-------0-------0---------------------------------|
G|------------------------2-------1-------1---------------------------------|
D|--------------4---------0-------2-------2---------------------------------|
A|--2--2--2--2--2--0------0-------2-------2---------------------------------|
E|--0--0--0--0-------3-0----------0-------0---------------------------------|
Comments