Darkness - Black Shuck Chords & Tabs

 

Black Shuck Chords & Tabs

Darkness Chords & Tabs

Version: 1 Type: Bass Tab 0 ratings
1 star 2 stars 3 stars 4 stars 5 stars
comments

Black Shuck Bass Tab

Intro and Chorus
G--------------------------------------------|
D------------------0------4------0-----------|
A----------0-----------------20-----0--------|
E--3-000-0---000-0---000--------3------------|
note (2-0 not 20)

Verse Part 1
G------------------------------------------|
D----------------------3-56-0-12-----------|
A--0*--------------------------------------|
E--------3*---2*---------------------------|
[ Tab from: http://www.guitartabs.cc/tabs/d/darkness/black_shuck_btab.html ]
G------------------------------------------|
D-----------------666-4-5-6----------------|
A----0-00-00--x3---------------------------|
E------------------------------------------|

Verse Part 2
G------------------------------------------|
D------------------------------------------|
A-0000000000000000000000000000000-555444---|
E------------------------------------------|
Order:Introx2
      Verse Part 1 x1
      Verse Part 2 x2
      Chorus x2
      Verse Part 1 x1
      Verse Part 2 x2
      Chorus x6
Comments