Darkness - Bareback Chords & Tabs

 

Bareback Chords & Tabs

Darkness Chords & Tabs

Version: 2 Type: Tab 0 ratings
1 star 2 stars 3 stars 4 stars 5 stars
comments

Bareback Tab

   
Hello, this is my first tab, but who cares, anyway...


The Darkness - Bareback
 
Intro:
 
E|----------------------|
B|-3--3--0-3-3--3--3--3-|
G|-5--4--0-2-2--5--4--2-|
D|-0--0--0-0-0--0--0--0-|
A|--------------------0-|
E|----------------------|

Guitar 2 (MUTED):

E|-2-2--3--2-2--2--2----|
B|-3-3--3--3-3--3--3----|
G|-2-2--2--2-2--2--2----| Throughout the WHOLE song. Even the intro.
D|-0-0--0--0-0--0--0----|
A|----------------------|
E|----------------------|
[ Tab from: http://www.guitartabs.cc/tabs/d/darkness/bareback_tab_ver_2.html ]
Main Riff (Guitar 1):
 
E|---------------------|
B|-3-3-3-3-3-3-3-3-0-0-|
G|-2-2-5-4-4-2-2-4-0-0-|
D|-0-0-0-0-0-0-0-0-0-0-|
A|---------------------|
E|---------------------|
 

Second Riff (Guitar 1):
 
E|---------------|
B|-3-----------3-|
G|-2-----------2-|
D|-0---------0-0-|
A|-------3-2-----|
E|---2-3---------|

Sry, don't know the solo, although I'm still trying to figure it out.

Any questions, write in my guestbook @ www.mcgrille.tk
Comments