Darkness - Bareback Chords & Tabs

 

Bareback Chords & Tabs

Darkness Chords & Tabs

Version: 1 Type: Tab

Bareback Tab

The Darkness
Bareback
B-side and live track
This is most of it but i cudnt quite work out the middle so apologies.
its a great instrumental tho so i thought id tab it out

intro-guitar 2 plays palm muted D5 chords
e--5----------3--------3-2-2--
b--3----------3--------3-3-3--
g--2----------2--------2-2-2-- x2
D--0----------0--------0-0-0--
A-----------------------------
E-----------------------------

main riff
e---------------------------
b---------------------------
g--2---2-5-4--2--2---4-0-0--
D--0---0-0-0--0--0---0-0-0-- x 8
A---------------------------
E---------------------------
[ Tab from: http://www.guitartabs.cc/tabs/d/darkness/bareback_tab.html ]
riff 2
e--2------------------------------------2---------------2---
b--3---------------2---2-5-4--2--4---2--3---------------3---
g--2-----0---------0---0-0-0--0--0---0--2-----0---------2---
D--0-----0---2--0-----------------------0-----0--2--0---0---
A-----0------3--2--------------------------0-----3--2-------
E-----2--3---------------------------------2--3-------------

main riff x 4

riff  2 x 1

riff 3
e--3----------------------------------------3-----------2--
b--3----------------------------------------3-----------3--
g--0-----------2---2-5-4--2--0--2--4(5)4-2--0-----------2--
D--0-----2--0--0---0-0-0--0--0--0--0-----0--0-----2--0--0--
A--x-----3--2-------------------------------x-----3--2-----
E--3----------------------------------------3--------------

thats all ive got for the mo, it basically repeats itself with solo sections and
slight variations of the main riff. hope its ok! plz post ne other correct parts