Darkest Hour - With A Thousand Words To Say But One Chords & Tabs

 

With A Thousand Words To Say But One Chords & Tabs

Darkest Hour Chords & Tabs

Version: 1 Type: Tab 0 ratings
1 star 2 stars 3 stars 4 stars 5 stars
comments

With A Thousand Words To Say But One Tab

Drop C tuning

*Palm Mute

Intro
|--------------------------------|----------------------------------|
|--------------------------------|----------------------------------|
|--------------------------------|----------------------------------|
|--------------------------------|----------------------------------|
|----7-----8---8-----7-----8---8-|----7-----8---8-----7-----10---10-|
|8-8---8-8---8---8-8---8-8---8---|5-5---5-5---5---5-5---5-5----5----|
 * *   * *   *   * *   * *   *    * *   * *   *   * *   * *    *

|--------------------------------------|------------------------------------|
|--------------------------------------|------------------------------------|
|--------------------------------------|------------------------------------|
|--------------------------------------|----------------------------10101010|
|----12-----12---12-----12-----12---12-|----12-----12---12-----12---10101010|
|0-0----0-0----0----0-0----0-0----0----|0-0----0-0----0----0-0----0-10101010|
 * *    * *    *    * *    * *    *     * *    * *    *    * *    * 

Verse Part 1
|--------------------------------|--------------------------------|
|--------------------------------|--------------------------------|
|--------------------------------|--------------------------------|
|--------------------------------|--------------------------------|
|----7-----8---8-----7-----8---8-|----7-----8---8-----7-----5---5-|
|8-8---8-8---8---8-8---8-8---8---|5-5---5-5---5---5-5---5-5---5---|
 * *   * *   *   * *   * *   *    * *   * *   *   * *   * *   *
[ Tab from: http://www.guitartabs.cc/tabs/d/darkest_hour/with_a_thousand_words_to_say_but_one_tab.html ]
|--------------------------------|--------------------------------|
|--------------------------------|--------------------------------|
|--------------------------------|--------------------------------|
|--------------------------------|--------------------------------|
|----3-----3---3-----3-----3---3-|----3-----3---3-----5-----5---5-|
|0-0---0-0---0---0-0---0-0---0---|0-0---0-0---0---0-0---0-0---0---|
 * *   * *   *   * *   * *   *    * *   * *   *   * *   * *   *

|--------------------------------|----------------------------------|
|--------------------------------|----------------------------------|
|--------------------------------|----------------------------------|
|--------------------------------|----------------------------------|
|----7-----8---8-----7-----8---8-|----7-----8---8-----7-----10---10-|
|8-8---8-8---8---8-8---8-8---8---|5-5---5-5---5---5-5---5-5----5----|
 * *   * *   *   * *   * *   *    * *   * *   *   * *   * *    *

|--------------------------------------|------------------------------------|
|--------------------------------------|------------------------------------|
|--------------------------------------|------------------------------------|
|--------------------------------------|----------------------------10101010|
|----12-----12---12-----12-----12---12-|----12-----12---12-----12---10101010|
|0-0----0-0----0----0-0----0-0----0----|0-0----0-0----0----0-0----0-10101010|
 * *    * *    *    * *    * *    *     * *    * *    *    * *    * 

I have trouble figuring out the rest. If anyone could help me out, i would
very much appreciate it.
Comments