Darkest Hour - These Fevered Times Chords & Tabs

 

These Fevered Times Chords & Tabs

Darkest Hour Chords & Tabs

Version: 2 Type: Tab

These Fevered Times Tab

   
-------------------------------------------------------------------------------
			     SONG NAME - Band Name
-------------------------------------------------------------------------------
Tabbed by:Damon
Email:seek333@cheatcc.com

Tuning:Drop C

e|---------------------------------------------------------------------------|
B|---------------------------------------------------------------------------|
G|---------------------------------------------------------------------------|
D|---------[-7-0-5-7-8-7-5-8p7p5-]--7-0-5-7-8-7------------------------------|
A|---------------------------------------------------------------------------|
E|---------------------------------------------------------------------------|
Play first part again than:
[ Tab from: http://www.guitartabs.cc/tabs/d/darkest_hour/these_fevered_times_tab_ver_2.html ]
e|---------------------------------------------------------------------------|
B|---------------------------------------------------------------------------|
G|---------------------------------------------------------------------------|
D|----555-5-777--------------------------------------------------------------|
A|----555-5-777---------------------------------that whole thing x2----------|
E|----555-5-777--------------------------------------------------------------|
then:
e|---------------------------------------------------------------------------|
B|---------------------------------------------------------------------------|
G|---------------------------------------------------------------------------|
D|-----------------------------t7-t5-t4--------------------------------------|
A|--------5-5-4-4-7------t7-t5-t4-------t5-----------------------------------|
E|-----------------------------------------5---------------------------------|

I think thats it any ? email me

{ t  triplet
| /  slide up
| \  slide down
| h  hammer-on
| p  pull-off
| ~  vibrato
| +  harmonic
| x  Mute note
===============================================================================