Darkest Hour - These Fevered Times Chords & Tabs

 

These Fevered Times Chords & Tabs

Darkest Hour Chords & Tabs

Version: 1 Type: Tab 0 ratings
1 star 2 stars 3 stars 4 stars 5 stars
comments

These Fevered Times Tab

i posted this same thing exept i changed the verse cuz i right after i posted that
last one i figured this out and i think this is the right way haha

Song:These Fevered Times
Artist:Darkest Hour
Album:Undoing Ruin
Track:09

This is the intro and a couple other parts i happend to stumble on.  sorry if it
doesnt help you, cuz other than the intro, its all just fragments.  i dont know
the solo, i just started to figure it out like and hour ago, so this is what i
got and im deciding to tab it.  i might make updates later.

. palm mute
~ let ring
. next to note means stop it from ringing
/ slide
h hammer on
p pull off
* pinch harmonic
 harmonic

Intro Verse
D|------------------------------------------------------------|
A|------------------------------------------------------------|
F|-----------------------------------4-2-1--------------------|
C|--6-7-4-6-------------6-7-4-6-2-----------------------------|
G|----------7--4h5--------------------------------------------|
C|-0-0-0-0-0-------0---0-0-0-0-0----------0-------------------|
PM . . . . .           . . . . .


D|--------------------------------------------------------|
A|--------------------------------------------------------|
F|--------------------------------------------------------|
C|--6-7-4-6-----------6-7-4-6-----4.-4.-4.-4.-------------|
G|----------7--4h5-----------7----4.-4.-4.-4.-------------|
C|-0-0-0-0-0------0--0-0-0-0------4.-4.-4.-4.-------------|    X2
PM . . . . .         . . . .
[ Tab from: http://www.guitartabs.cc/tabs/d/darkest_hour/these_fevered_times_tab.html ]
D|-------------------------------------------------------|
A|-------------------------------------------------------|
F|-------------------------------------------------------|
C|--7-9-11-12--11--9h11p9--------7-9-11-12-11---9h11p9---|
G|-------------------------------------------------------|
C|-0-0-0--0--0------------0-----0-0-0--0--0------------0-|
PM . . .  .  .                  . . .  .  .

D|-------------------------------------------------------|
A|-------------------------------------------------------|
F|-------------------------------------------------------|
C|--7-9-11-12--11--9h11-11---7-9-11-12--11-9h11-11-------|
G|-------------------------------------------------------|
C|-0-0-0--0--0--------------0-0-0--0--0------------------|  X2


                  All That X2
                       _____tens______
Chorus                 |              |
D|-------------------------------------------------------|
A|-------------------------------------------------------|
F|--------------------------------------777777777--------|
C|-222222222-55555555-1010101010101010--777777777--------|
G|-222222222-55555555-1010101010101010--555555555--------|
C|-222222222-55555555-1010101010101010-------------------|

^^^^^^^^^^^strumming not shown

then after that...theres a part...then theres this part.

D|--------------------------------------------------------------------|
A|--------------------------------------------------------------------|
F|--1717-19-15-17-14-15-12--------------------------------------------|
C|--------------------------------------------------------------------|
G|---------------------------12p10-10-12p10-10-\\\\14p15-15-14p15-15--|
C|-------------------------------harmonized--with---------------------|


  then he does some kind of harmonized arpeggio that i havent tried to
figure out yet.   and im gonna try and work on the solo with my friend.
Comments