Darkest Hour - Pay Phones And Pills Chords & Tabs

 

Pay Phones And Pills Chords & Tabs

Darkest Hour Chords & Tabs

Version: 1 Type: Tab 0 ratings
1 star 2 stars 3 stars 4 stars 5 stars
comments

Pay Phones And Pills Tab

   
darkest hour

pay phones and pills
 C TUNING

intro
guitar 1-2
 ------------------------------------------------------------------------|
 ------------------------------------------------------------------------|
 ------------------------------------------------------------------------|
 ------------------------------------------------------------------------|
 ------------------------------------------------------------------------|
 -----12/]/]/]/]/0-------------------------------------------------------|
guitar 1-2
 ------------------------------------------------------------------------|
 ------------------------------------------------------------------------|
 ------------------------------------------------------------------------|
 -8---88888--88888--888888----3/5--0----0----0---------------------------|
 -8---88888--88888--888888----3/5--0----0----0---------------------------|
 -8---88888--88888--888888----3/5--0-00-0-00-0-00------------------------|
                                     pm   pm   pm

guitar 1-2
-------------------------------------------------------------------------|
 ------------------------------------------------------------------------|
 ------------------------------------------------------------------------|
 -8---88888--88888--888888----3/5--0----0----0---------------------------|
 -8---88888--88888--888888----3/5--0----0----0---------------------------|
 -8---88888--88888--888888----3/5--0-00-0-00-0-00------------------------|
                                     pm   pm   pm
[ Tab from: http://www.guitartabs.cc/tabs/d/darkest_hour/pay_phones_and_pills_tab.html ]
guitar 1
-------------------------------------------------------------------------|
 ------------------------------------------------------------------------|
 ------------------------------------------------------------------------|
 -8---88888--88888--888888----3/5--0----0----0---------------------------|
 -8---88888--88888--888888----3/5--0----0----0---------------------------|
 -8---88888--88888--888888----3/5--0-00-0-00-0-00------------------------|
                                     pm   pm   pm                 /\
guitar 2                                            play same time\/
 ------------------------------------------------------------------------|
 ------------------------------------------------------------------------|
 ------------------------------------------------------------------------|
 ------------------------------------------------------------------------|
 -5-5-5-5-5-5-3/1-0-00-00-00-0-----5-5-5-5-5-5-3\1-0-00-00-00------------|
 ------------------------------------------------------------------------|

guitar 1
-------------------------------------------------------------------------|
 ------------------------------------------------------------------------|
 ------------------------------------------------------------------------|
 -8---88888--88888--888888----3/5--0----0----0---------------------------|
 -8---88888--88888--888888----3/5--0----0----0---------------------------|
 -8---88888--88888--888888----3/5--0-00-0-00-0-00------------------------|
                                     pm   pm   pm                 /\
guitar 2                                            play same time\/

 -----------------------------------------------------------------------|
 -----------------------------------------------------------------------|
 -----------------------------------------------------------------------|
 -----------------------------------------------------------------------|
 -0-1-1-1-1-1-1-3/5-0-00-00-00-0-1-1-1-1-1-1-3/5-0-00-00-00-------------|
 -----------------------------------------------------------------------|
sorry i dont know the rest but all i know is that this tab is 100 percent correct. hope 
like      cameron
Comments