Dark Rain - The Seven Seas Of Hate Chords & Tabs

 

The Seven Seas Of Hate Chords & Tabs

Dark Rain Chords & Tabs

Version: 1 Type: Tab 0 ratings
1 star 2 stars 3 stars 4 stars 5 stars
comments

The Seven Seas Of Hate Tab

   
Dark-Rain-metal.de
The Seven seas of hate
No Compromises
#----------------------------------PLEASE NOTE---------------------------------#
#This file is the author's own work and represents their interpretation of the #
#song. You may only use this file for private study, scholarship, or research. #
#------------------------------------------------------------------------------#

   4/4
    Gtr I
     S  S  S  S  S  S  S  S  S  S  S  S  S  S  S  S
||--------------------------------------------------|
||o-------------------------------------------------|
||--------------------------------------------------|
||--14-------17-------16-------14-------17----16-16-|
||o----15-15----15-15----15-15----15-15----15-------|
||--------------------------------------------------|
|
|   Gtr I
|    E     Q           H                       E
||--------------------------------------------------|
||o-------------------------------------------------|
||--------------------------------------------------|
||---------5----------------------------------------|
||o--2-----3-----------5----------------------------|
||---0-----------------3----------------------------|


   S  S  S  S  S  S  S  S  S  S  S  S  S  S  S  S
|-----------------------------------------------------||
|----------------------------------------------------o||
|-----------------------------------------------------||
|-14-------17-------16-------14-------17----16-16-----||
|----15-15----15-15----15-15----15-15----15----------o||
|-----------------------------------------------------||
|
|  E     Q           Q           Q
|-----------------------------------------------------||
|----------------------------------------------------o||
|-----------------------------------------------------||
|--------5-----------------------4--------------------||
|--2-----3-----------5-----------5-------------------o||
|--0-----------------3-----------2--------------------||


    S S S S S S S S S S S S S S S S     4x
||--------------------------------------||
||o------------------------------------o||
||--------------------------------------||
||--------5-----------------5-----------||
||o-2-----3-3-3-5-----2-----3-3-5-5----o||
||--0-0-0-------3-3-3-0-0-0-----3-3-----||
|
|   S S S S S S S S S S S S S S S S     4x
||--------------------------------------||
||o------------------------------------o||
||--------------------------------------||
||--------5-----------5-----5-5-7-5-----||
||o-5-7-9---9-7-5-7-9---9-7------------o||
||--------------------------------------||


     S  S  S  S  S  S  S  S  S  S  S  S  S  S  S  S
||--------------------------------------------------:
||o-------------------------------------------------:
||--------------------------------------------------:
||--14-------17-------16-------14-------17----16-16-:
||o----15-15----15-15----15-15----15-15----15-------:
||--------------------------------------------------:
|
|    E     Q           Q
||--------------------------------------------------:
||o-------------------------------------------------:
||--------------------------------------------------:
||---------5----------------------------------------:
||o--2-----3-----------5----------------------------:
||---0-----------------3----------------------------:


   S  S  S  S  S  S  S  S  S  S  S  S  S  S  S  S
|---------------------------------------------------||
|--------------------------------------------------o||
|---------------------------------------------------||
|-14-------17-------16-------14-------17----16-16---||
|----15-15----15-15----15-15----15-15----15--------o||
|---------------------------------------------------||
|
|  E     Q           Q           Q
|---------------------------------------------------||
|--------------------------------------------------o||
|---------------------------------------------------||
|--------5-----------------------4------------------||
|--2-----3-----------5-----------5-----------------o||
|--0-----------------3-----------2------------------||


    S S S S S S S S S S S S S S S S     4x
||--------------------------------------||
||o------------------------------------o||
||--------------------------------------||
||--------5-----------------5-----------||
||o-2-----3-3-3-5-----2-----3-3-5-5----o||
||--0-0-0-------3-3-3-0-0-0-----3-3-----||
|
|   S S S S S S S S S S S S S S S S     4x
||--------------------------------------||
||o------------------------------------o||
||--------------------------------------||
||--------5-----------5-----5-5-7-5-----||
||o-5-7-9---9-7-5-7-9---9-7------------o||
||--------------------------------------||


   S S S S S S  S S S S S S S S E
|------------------------------------|
|------------------------------------|
|------------------------------------|
|------------------------------------|
|--9-7-5-7-5-3--5-3-2-3-2---2--------|
|-------------------------5---5-3----|
|
|  S S S S S S  S S S S S S S S S
|------------------------------------|
|---------------------8-7-5-5--------|
|--------------11-9-7---------5-0----|
|-10-9-7-9-7-5-----------------------|
|------------------------------------|
|------------------------------------|


        PM|       PM|       PM|
        |3|       |3|       |3|
    S E S S S S S S S S S S S S S S S S     4x
||------------------------------------------||
||o----------------------------------------o||
||------------------------------------------||
||------------------------------------------||
||o-2-------4-2-------4-2-------4-2-5-3----o||
||--0---0-0-2-0---0-0-2-0---0-0-2-0-5-3-----||
    E


    Q E E  Q E E  Q E E  S S S S E E
||---------------------------------------||
||o-------------------------------------o||
||---------------------------------------||
||---------7-7-7--5-5-5------------------||
||o-7-7-7--5-5-5--3-3-3--5---5-5-5-5----o||
||--5-5-5----------------3-3-3-3-3-3-----||

[ Tab from: http://www.guitartabs.cc/tabs/d/dark_rain/the_seven_seas_of_hate_tab.html ]
    Gtr I
     Q     E  E  Q    E  E  Q   E  E  Q   E  E
||------------------------------------------------------||--||-----|
||o----------------------------------------------------o||--||o----|
||-------------------12---------------------------------||--||-----|
||--------14-----9------12-----12-----------------------||--||-----|
||o----------12------------10-----15-14----------------o||--||o----|
||--12-----------------------------------15-12----------||--||-----|
|
|   Gtr I
|    Q     E  E  Q    E  E  Q   E  E  Q   E  E
||------------------------------------------------------||--||-----|
||o----------------------------------------------------o||--||o----|
||--------------------5-------------------5p=2----------||--||-----|
||---------7-------------5------5-----------------------||--||-----|
||o-----------5--7----------3------3-------------------o||--||o----|
||---5--------------------------------3-----------------||--||-----|
|
|    E  E  E  E  E E  E  E
||------------------------------------------------------||--||-----|
||o----------------------------------------------------o||--||o----|
||-----------------9-11-12------------------------------||--||-----|
||---------9-10-12--------------------------------------||--||-----|
||o-10-12----------------------------------------------o||--||o----|
||------------------------------------------------------||--||-----|


   S  S  S  S  S  S  S  S  S  S  S  S  S  S  S  S
|-------------------------------------------------|
|-------------------------------------------------|
|-------------------------------------------------|
|-14-------17-------16-------14-------17----16-16-|
|----15-15----15-15----15-15----15-15----15-------|
|-------------------------------------------------|
|
|  E     Q           H                       E
|-------------------------------------------------|
|-------------------------------------------------|
|-------------------------------------------------|
|--------5----------------------------------------|
|--2-----3-----------5----------------------------|
|--0-----------------3----------------------------|


   S  S  S  S  S  S  S  S  S  S  S  S  S  S  S  S
|----------------------------------------------------||
|---------------------------------------------------o||
|----------------------------------------------------||
|-14-------17-------16-------14-------17----16-16----||
|----15-15----15-15----15-15----15-15----15---------o||
|----------------------------------------------------||
|
|  E     Q           Q           Q
|----------------------------------------------------||
|---------------------------------------------------o||
|----------------------------------------------------||
|--------5-----------------------4-------------------||
|--2-----3-----------5-----------5------------------o||
|--0-----------------3-----------2-------------------||


    S S S S S S S S S S S S S S S S     3x
||--------------------------------------||
||o------------------------------------o||
||--------------------------------------||
||--------5-----------------5-----------||
||o-2-----3-3-3-5-----2-----3-3-5-5----o||
||--0-0-0-------3-3-3-0-0-0-----3-3-----||
|
|   S S S S S S S S S S S S S S S S     3x
||--------------------------------------||
||o------------------------------------o||
||--------------------------------------||
||--------5-----------5-----5-5-7-5-----||
||o-5-7-9---9-7-5-7-9---9-7------------o||
||--------------------------------------||


   S S S S S S  S S S S S S S  S  E
|--------------------------------------|
|--------------------------------------|
|--------------------------------------|
|--------------------------------------|
|--9-7-5-7-5-3--5-3-2-3-2---2----------|
|-------------------------5----5--3----|
|
|  S S S S S S  S S S S S S S  S  S
|--------------------------------------|
|---------------------8-7-5------------|
|--------------11-9-7-------9----------|
|-10-9-7-9-7-5----------------10-------|
|--------------------------------10----|
|--------------------------------------|


        PM|       PM|       PM|
        |3|       |3|       |3|
    S E S S S S S S S S S S S S S S S S     6x
||------------------------------------------||
||o----------------------------------------o||
||------------------------------------------||
||------------------------------------------||
||o-2-------4-2-------4-2-------4-2-5-3----o||
||--0---0-0-2-0---0-0-2-0---0-0-2-0-5-3-----||
    E


    Q  E E Q  E E   Q  E E S S S S E E
||----------------|------------------------||
||o---------------|-----------------------o||
||----------------|------------------------||
||---------7--7-7-|-5--5-5-----------------||
||o-7--7-7-5--5-5-|-3--3-3-5---5-5-5-5----o||
||--5--5-5--------|--------3-3-3-3-3-3-----||


   Q   E  E Q   E  E    Q   E  E  Q   E  E
|--------------------|------------------------|
|--------------------|------------------------|
|--------------12----|------------------------|
|-----14----9-----12-|-----12-----------------|
|--------12----------|-10-----15-14-----------|
|-12-----------------|---------------15-12----|
|
|  Q   E  E Q   E  E    Q   E  E  Q   E  E
|--------------------|------------------------|
|--------------------|------------------------|
|---------------5----|----------------5p=2----|
|------7-----------5-|------5-----------------|
|---------5-7--------|--3------3--------------|
|--5-----------------|------------3-----------|




Duration Legend
---------------
W - whole; H - half; Q - quarter; E - 8th; S - 16th; T - 32nd; X - 64th; a - acciaccatura
+ - note tied to previous; . - note dotted; .. - note double dotted
Uncapitalized letters represent notes that are staccato (1/2 duration)
Irregular groupings are notated above the duration line
Duration letters will always appear directly above the note/fret number it represents the
duration for.  Duration letters with no fret number below them represent rests.  Multi-
bar rests are notated in the form Wxn, where n is the number of bars to rest for.  Low
melody durations appear below the staff

Tablature Legend
----------------
 h   - hammer-on
 p   - pull-off
 b   - bend
 pb  - pre-bend
 r   - bend release (if no number after the r, then release immediately)
 /\  - slide into or out of (from/to "nowhere")
 s   - legato slide
 S   - shift slide
 - natural harmonic
[n]  - artificial harmonic
n(n) - tapped harmonic
 ~   - vibrato
 tr  - trill
 T   - tap
 TP  - trem. picking
 PM  - palm muting
\n/  - tremolo bar dip; n = amount to dip
 \n  - tremolo bar down
 n/  - tremolo bar up
/n\  - tremolo bar inverted dip
 =   - hold bend; also acts as connecting device for hammers/pulls
  - volume swell (louder/softer)
 x   - on rhythm slash represents muted slash
 o   - on rhythm slash represents single note slash

Misc Legend
-----------
 |  - bar
||  - double bar
||o - repeat start
o|| - repeat end
*|  - double bar (ending)
 :  - bar (freetime)
 $  - Segno
 &  - Coda
>

Comments