Dark Rain - Are You Really Loving Me Chords & Tabs

 

Are You Really Loving Me Chords & Tabs

Dark Rain Chords & Tabs

Version: 1 Type: Tab 0 ratings
1 star 2 stars 3 stars 4 stars 5 stars
comments

Are You Really Loving Me Tab

   
#----------------------------------PLEASE NOTE---------------------------------#
#This file is the author's own work and represents their interpretation of the #
#song. You may only use this file for private study, scholarship, or research. #
#------------------------------------------------------------------------------#

Artist: Dark Rain
from the Single: The first Songs
Titla: Are you really lovinĀ“me (Single Version)

Riff1/Chorus: many times
    Am            C       Em
E---------------------------------
B-----1-------1-------1-------0---
G---2---2---2---2---0---0---0---0-
D---------------------------------
A-0-------0-------3-------2-------
E----------------------------------

Riff2/Refrain(*4):
[ Tab from: http://www.guitartabs.cc/tabs/d/dark_rain/are_you_really_loving_me_tab.html ]
    D   Am   C        Em
E-------0---------0-----
B----3--1---1---1---0-0-
G-----------------------
D-0-0---2----2--2-----2-
A-----------------------
E-----------------------

Riff2/End of Refrain:

    Em
E------
B-0----
G----0-
D------
A------
E------

Riff3/Ending:

*2                                                   Last time:
   Am       Em       D               C                Am
E------------------------------------------------    E ---0-                         
B-----1---------0--------3-------3-------1-------    B---1--
G---2---2-----0---0----2---2---2---2---0---0-----    G--2---
D-2---------2--------0-------0-------2-----------    D-2----
A------------------------------------------------    A-0----
E------------------------------------------------    E------

Order: Riff1 - Riff2 - Riff1 - Riff2 - Riff1 - Riff2 - Riff3
Comments