Dark New Day - Brother Chords & Tabs

 

Brother Chords & Tabs

Dark New Day Chords & Tabs

Version: 2 Type: Tab 0 ratings
1 star 2 stars 3 stars 4 stars 5 stars
comments

Brother Tab

   
-------------------------------------------------------------------------------
		      "Brother" - Dark New Day
-------------------------------------------------------------------------------
Tabbed by: Iceman3
Email: icemanheat@msn.com

 Im just completing the tab the other guy began but I will add some other stuff too.
First of all guitarists Clint Lowery and Troy McLawhorn play this song in a low tuning
of Bb F Bb Eb G Bb so heavy gauge strings are needed to perfectly recreate their sounds.
 Many of Lowery's riffs on this track are  very similar to ones he played while with
Sevendust.  This tab is not perfect since there is a few quiet riffs heard in the intro
and pre-chorus but it is pretty close.  If you have any questions or suggestions email
me.

Tuning:Bb F Bb Eb G Bb

guitar 1: Clint Lowery
guitar 2: Troy McLawhorn

Intro

guitar 1 w/ modulation effect

Bb|--------------------------------------------------------------------------|
G |--------------------------------------------------------------------------|
Eb|-11----14----19----14----11----12----15----19----21----19----15-----------|
Bb|--------------------------------------------------------------------------|
F |--------------------------------------------------------------------------|
Bb|--------------------------------------------------------------------------|


Bb|--------------------------------------------------------------------------|
G |--------------------------------------------------------------------------|
Eb|-11----14----19----14----11----12----15----19----21----19-----------------|
Bb|--------------------------------------------------------------------------|
F |--------------------------------------------------------------------------|
Bb|--------------------------------------------------------------------------|

guitar 2 w/dist.
Bb|--------------------------------------------------------------------------|
G |------------------------------------7-7-7---------------------------------|
Eb|-----5-5-5^-------------5-----5-----x-x-x------------8-8-8----------------|
Bb|------------------------------------4-4-4------------x-x-x----------------|
F |--------------------5h6---5h6------------------3h5---6-6-6----------------|
Bb|-0-----------0-0-0---------------0---------0-0----------------------------|

verse

guitar 1 and 2: acoustic
Bb|--------------------------------------------------------------------------|
G |--------------------------------------------------------------------------|
Eb|--------------------------------------------------------------------------|
Bb|---0-------0-----0-----0-----0-------0-----0-----0----0-------------------|
F |------3h5-----3-----------------3h5-----3---------------------------------|
Bb|-0------------------5----4--------------------3----0----------------------|
[ Tab from: http://www.guitartabs.cc/tabs/d/dark_new_day/brother_tab_ver_2.html ]
This riff below is heard at the end of the second verse.

Bb|---0-------0-----0-----0-----0------0--------------------------------------|
G |---------------------------------------------------------------------------|
Eb|---------------------------------------------------------------------------|
Bb|---------------------------------------------------------------------------|
F |------3h5-----3-----------------3h5----3-----------------------------------|
Bb|-0------------------5----4-------------------------------------------------|

Pre-chorus is just the intro without guitar 1's riff.

Chorus

guitar 1 w/modulation effect
e|---------------------------------------------------------------------------|
B|---------------------------------------------------------------------------|
G|-11----14----19----14----11----12----15-----19----21----19----15-----------|
D|---------------------------------------------------------------------------|
A|---------------------------------------------------------------------------|
E|---------------------------------------------------------------------------|

guitar 2 w/dist.    it's not hard to figure out the rhytm pattern
Bb|---------------------------|-----------------------------------------------|
G |---------------------------|-----------------------------------------------|
Eb|----------10----/---12----|-------------10----\-----5----------------------|
Bb|----0-----8-----/---10-----|----0-------8-----\-----3----------------------|
F |----0-----8-----/---10-----|----0-------8-----\-----3----------------------|
Bb|----0-----8-----/---10-----|----0-------8-----\-----3----------------------|

Bridge

guitar 1 w/ light dist.

Bb|--------------------------------------------------------------------------|
G |--------------------------------------------------------------------------|
Eb|--------------------------------------------------------------------------|
Bb|------0---0---5---0---4---0-------------0---5---4---0---5---0---5/7\5-----|
F |--3h5---3-------------------3--5----3h5-----------------------------------|
Bb|--------------------------------------------------------------------------|

guitar 2 w/dist. strike once and let notes ring
e|----------------------------------------------------------------------------|
B|----------------------------------------------------------------------------|
G|-----------10-----12-------------10-----5-----------------------------------|
D|----0------8------10------0------8------3-----------------------------------|
A|----0------8------10------0------8------3-----------------------------------|
E|----0------8------10------0------8------3-----------------------------------|


Outro is the same as the intro

| ^  bent note 1 step
| /  slide up
| \  slide down
| h  hammer-on
| p  pull-off
| ~  vibrato
| +  harmonic
| x  Mute note
===============================================================================
Comments