Dark New Day - Brother Chords & Tabs

 

Brother Chords & Tabs

Dark New Day Chords & Tabs

Version: 1 Type: Tab 0 ratings
1 star 2 stars 3 stars 4 stars 5 stars
comments

Brother Tab

Intro/outro
c--------------------------------------------|
G----5-5-5-----------5-----5-----------------|
Eb-------------------------------------------|
Bb---------------5-6---5-6-----4-4-4---------|  x4
F--0-------0-0-0-------------0-------0-3-5-6-|
Bb-0-------0-0-0-------------0-------0-------|

verse
c-----------------------|
G-----------------------|
Eb----------------------|
Bb--0---0-0-0-0---0-0-0-|
f----3h5-3-----3h5-3----| x4
Bb-0-------5-4-------3--|
[ Tab from: http://www.guitartabs.cc/tabs/d/dark_new_day/brother_tab.html ]
chorus
c----------------------------------------------------------|
G----------------------------------------------------------|
Eb------------------------10--10-10-10/-12--12--12--12--12-|
Bb-0--0--0-0-0-0--0--0-0--8---8--8--8-/-10--10--10--10--10-|
f--0--0--0-0-0-0--0--0-0--8---8--8--8-/-10--10--10--10--10-|
Bb-0--0--0-0-0-0--0--0-0--8---8--8--8-/-10--10--10--10--10-|

c-----------------------------------------------------|
G-----------------------------------------------------|
Eb------------------------10--10-10-10/-7--7--7--7--7-|
Bb-0--0--0-0-0-0--0--0-0--8---8--8--8-/-5--5--5--5--5-|
f--0--0--0-0-0-0--0--0-0--8---8--8--8-/-5--5--5--5--5-|
Bb-0--0--0-0-0-0--0--0-0--8---8--8--8-/-5--5--5--5--5-|

bridge
c------------|
G------------|
Eb-----3---5-|
Bb-----3---5-|
f--0---1---3-|
Bb-0---------|

order:
intro
verse
chorus
verse
chorus
bridge
intro
chorus
outro

Thats it.If theres anything wrong with it, e-mail
@ hendr1x@comcast.net.
Comments