Dark Legion - Wraith Chords & Tabs

 

Wraith Chords & Tabs

Dark Legion Chords & Tabs

Version: 1 Type: Tab 0 ratings
1 star 2 stars 3 stars 4 stars 5 stars
comments

Wraith Tab

   
                                                            Wraith
                                                        By Dark Legion
                               Written by Shea Maloney (1st guitar) and Angel Mayorga (2nd guitar)
                                                     Tabs done by Spazmo_17
                                                            4/28/01
   Here is the second classical guitar part after Angel's solo at the beginning.

          *Hand picked*	                        *use pick now*
        	       
								         
E-    |--3--3---------0--------    |--------------|--0-------------0-|-3---------------3--|--0--------------0--|
A-    |--------2--2-------2--2-    |--0---------0-|----2--------2----|----2----------2----|-----3---------3----|
D-    |---------------2------2-    |---2------2---|------2----2------|-------0-----0------|--------2----2------|
G-    |-------------------0----    |----2---2-----|--------0---------|----------0---------|-----------0--------|
B-    |--------3--3------------    |------1--------------------------------------------------------------------|
E-    |--3--3------------------   -----------------------------------------------------------------------------|
	
	
E	|--0-----------0--|
A	|----2-------2----|
D	|------2---2------|
G	|--------0--------|
B	|
E	|

   Here are the acoustic classical chords preceding the heavy guitar.

E	|--0---------------------|-------------------|----------------------0-|--0----------------|
A	|----2-------------------|-------------------|------------------3-2-0-|----2--------------|
D	|------2-2-2--2--3--5----|--3--2--3--2-2-----|--2-2h3-2--2-0----------|-------2-2-2--2-3--|
[ Tab from: http://www.guitartabs.cc/tabs/d/dark_legion/wraith_tab.html ]
|---------------------|-------------------------0-|--0------------------|--------------------|
|---------------------|-----------------3-2-0-----|-----2---------------|--------------------|
|--5-3-7-5-9-3-2------|--2-2h3-2--2-0-------------|-------2-2-2--2-3-5--|--3-2-7-3-2--2-2h3--|
|---------------------|---------------------------|---------------------|-------2------------|

|-----------------0-|
|----------3-2-0----|
|--2--2-0-----------|

   Here heavy distorted guitar comes in and repeats all of acoustics' part. Then they play this after they 
repeated the above.



|--0-1-3-----------------------------|--------------------------------------3-1--0|
|---------0-2-3----------------------|----------3-2-0-2-3-----------3-2-----------|
|----------------0-2-3-2-5-3-2h3-----|--2--2-0-------------0-2-3-2----------------|
   After a short pause the two dueling guitars go into the power chord section.



|-0--0-0-0--0-0-0-|-3-2-|-0--0-0-0--0-0-0-|------|-0--0-0-0--0-0-0-|------|
|-----------------|-5-4-|-----------------|--3-2-|-----------------|------|
|-----------------|-----|-----------------|--5-4-|-----------------|--3-2-|
|-----------------|-----|-----------------|------|-----------------|--5-4-|

|-0--0-0-0--0-0-3-|--0-2--2-2--3----|-0--0-0-0--0-0-----------------|
|---------------5-|----4--4-4--5-3--|---------------3---2--2-2--3---|
|-----------------|--------------5--|---------------5---4--4-4--5-3-|
|-----------------|-----------------|-----------------------------5-|
                                              Section 2
                                              
|-0--0-0-0--0-0---------------|-----3-----|-0-0-0-0-0-0-0-0-|-0-0-0-0---0-0-0-0---0-0-0-0-----|
|-----------------------------|-3---5-----|-----------------|---------3---------2---------0---|
|---------------3---2--2-2--3-|-5---------|-----------------|---------5---------4---------2---|
|---------------5---4--4-4--5-|---------------------------------------------------------------|


|-0-0-0-0-0-0-0-0-1-1-1-1-|-0-0-0-0---0-0-0-0---0-0-0-0---0-0-0-0-0-0-0-0-1-1-1-1-|
|-------------------------|---------2---------2---------3-------------------------|
|-------------------------|---------0---------4---------5-------------------------|

|-3--0-----|
|-5--2--0--|
|-------2--|

Here they transition to Shea's solo then repeat section 2 and go into Angels' solo.
I have written that part yet so I'll update when I do. "Have fun!"

Spazmo_17
Comments