Dark Funeral - My Dark Desires Chords & Tabs

 

My Dark Desires Chords & Tabs

Dark Funeral Chords & Tabs

Version: 1 Type: Bass Tab

My Dark Desires Bass Tab

Band- Dark Funeral
Song- My dark Desires

G||--------------------|------------------|-------------------|
D||*-------------------|------------------|-------------------|
A||*--5----------------|------------------|--5----------------|
E||--------------------|------------------|-------------------|


                                                                              
------------------|-------------------|------------------|-------------------|
------------------|-------------------|------------------|-------------------|
------------------|--1----------------|------------------|--1----------------|
------------------|-------------------|------------------|-------------------|


                                                                
-------------------||---------------------|--------------------|
------------------*||*--------------------|--------------------|
------------------*||*--4--------------5--|--4--------------5--|
-------------------||---------------------|--------------------|


                                                                 
--------------------|---------------------||--------------------|
--------------------|--------------------*||*-------------------|
--1--------------2--|--1--------------2--*||*--5----------------|
--------------------|---------------------||--------------------|


                                                                              
------------------|-------------------|------------------|-------------------|
------------------|-------------------|------------------|-------------------|
------------------|--0----------------|------------------|--4----------------|
------------------|-------------------|------------------|-------------------|


                                                          3x
------------------|-------------------|-------------------||
------------------|-------------------|------------------*||
------------------|-------------------|------------------*||
------------------|--3----------------|-------------------||


                                                            
--------------------|------------------|-------------------|
*-------------------|------------------|-------------------|
*--5----------------|------------------|--1----------------|
--------------------|------------------|-------------------|


                   3x                                        
-------------------||--------------------|------------------|
------------------*||*-------------------|------------------|
------------------*||*--5----------------|------------------|
-------------------||--------------------|------------------|


                                       3x                     
-------------------|-------------------||--------------------|
-------------------|------------------*||*-------------------|
--1----------------|------------------*||*--5----------------|
-------------------|-------------------||--------------------|

[ Tab from: http://www.guitartabs.cc/tabs/d/dark_funeral/my_dark_desires_btab.html ]
                                                                              
------------------|-------------------|------------------|-------------------|
------------------|-------------------|------------------|-------------------|
------------------|--0----------------|------------------|--4----------------|
------------------|-------------------|------------------|-------------------|


                                                          3x
------------------|-------------------|-------------------||
------------------|-------------------|------------------*||
------------------|-------------------|------------------*||
------------------|--3----------------|-------------------||


                                                             
--------------------|-------------------|-------------------|
*-------------------|-------------------|-------------------|
*-------------------|-------------------|-------------------|
---5----------------|--6----------------|--5----------------|


                                                                     
--------------------||--------------------|-------------------------|
-------------------*||*-------------------|-------------------------|
-------------------*||*--5----------------|----------6----5----6----|
--9-----------------||--------------------|-------------------------|


                                                                  
-------------------|-------------------------|-------------------|
-------------------|-------------------------|-------------------|
--2----------------|----------3----2----3----|--5----------------|
-------------------|-------------------------|-------------------|


                                                                   3x
-------------------------|-------------------|---------------------||
-------------------------|-------------------|--------------------*||
----------6----5----6----|--8----------------|--9--------6--------*||
-------------------------|-------------------|---------------------||


                                                             
--------------------|-------------------|-------------------|
*-------------------|-------------------|-------------------|
*-------------------|-------------------|-------------------|
---5----------------|--6----------------|--5----------------|


                                                            
--------------------||------------------|------------------|
-------------------*||------------------|------------------|
-------------------*||------------------|------------------|
--9-----------------||------------------|------------------|


                                                             
|--------------------|------------------|-------------------|
|*-------------------|------------------|-------------------|
|*--5----------------|------------------|--1----------------|
|--------------------|------------------|-------------------|


                   3x                                        
-------------------||--------------------|------------------|
------------------*||*-------------------|------------------|
------------------*||*--5----------------|------------------|
-------------------||--------------------|------------------|


                                       3x                    
-------------------|-------------------||-------------------|
-------------------|------------------*||-------------------|
--1----------------|------------------*||--5----------------|
-------------------|-------------------||-------------------|


                    
------------------||
------------------||
------------------||
------------------||