Dark Funeral - In The Sign Of The Horns Chords & Tabs

 

In The Sign Of The Horns Chords & Tabs

Dark Funeral Chords & Tabs

Version: 1 Type: Tab 0 ratings
1 star 2 stars 3 stars 4 stars 5 stars
comments

In The Sign Of The Horns Tab


 
 / The following is the author's own interpretation of the song, to be used -
 / for studying or private use only                                         -
 
 
 

  transcribed by: Gernot Eller (AUT)  July'97

 DARK FUNERAL: IN THE SIGN OF THE HORNS (version 1.1)

  *...this note is a ten, not a one and a zero

	[repeat riff1 seven times]
	
	  RIFF1
	||----------------|----------------||
	||----------------|----------------||
 	||--------7-------|----------------||
	||--7-6-7---7-8-7-|--------8-------||
	||5---------------|--8-7-8---8-9-8-||
 	||----------------|6---------------||
	
[ Tab from: http://www.guitartabs.cc/tabs/d/dark_funeral/in_the_sign_of_the_horns_tab.html ]
	[play the next riff six times, and continue with playing riff2a twice]
	
	  RIFF2		      RIFF2a	
	||------------------||--------------------------------||
	||------------------||--------------------------------||
	||------------------||--------------------------------||
	||777788887777777\6/||77778888777766667777888877776666||
	||555555555555555\4/||55555555555555555555555555554444||

	
	[riff4 is played four times]

	  RIFF4	
	||--------||
	||--------||
	||--------||
	||7---7---||
	||5-8-5-87||
	||--6---65||

	[the next riff is played afer the sample]

	||----------------|----------------||
	||----------------|----------------||
	||----------------|----------------||
	||----------------|----*-----------||
	||5---8-7-6---7---|7---109-8---9---||
	||----------------|----------------||
	
 I still continue working on this tab! Ask me for the latset version!

 If you have found one -of probably thousand- mistakes or if you know other 
 Dark Funeral-tabs or the lyrics of "The Gates Are Opened" or of this song,
 feel free to mail me!
Comments