Dark Fortress - Twilight Chords & Tabs

 

Twilight Chords & Tabs

Dark Fortress Chords & Tabs

Version: 1 Type: Tab 0 ratings
1 star 2 stars 3 stars 4 stars 5 stars
comments

Twilight Tab

   
Artist:Dark Fortress
Song:Twilight
Album:Tales From Eternal Dusk
Tab By:Rob Vargo (SauronSatan666@Hotmail.com)




Play along with the song to find the correct timings.
 

   Riff:1 4x 0:03-0:23
   Both Guitars
e||------------------------------------------------||
B||------------------------------------------------||
G||777------777------------------------------------||
D||---101010---------777888777888777888101010777888||
A||------------101010------------------------------||
E||------------------------------------------------||
  
   Riff:2 5x 0:23-1:15
   Both Guitars
e||-------------------------------------------------------------------||
B||-------------------------------------------------------------------||
G||-------------------------------------------------------------------||
D||---444--555444--77755544555454-------------------------------------||
A||222---22------22--------------55---555--777555--9997775510101099977||
E||--------------------------------333---33------33-------------------||

   Riff:3 4x 1:15-1:41
   Both Guitars
e||-------------------------------------------------------------------||
B||-------------------------------------------------------------------||
G||-------------------------------------------------------------------||
D||-------------------------------------------------------------------||
A||2-------2-------5-5-555-5-5-555-9-9-999-9-9-999--------------------||
E||0-0-000-0-0-000-3-3-333-3-3-333-7-7-777-7-7-777-7878-5757-3535-2323||

   Riff:4 2x 1:41-2:00
   Both Guitars
e||-----------------------------------------------------------------------------------------------------------------||
B||-----------------------------------------------------------------------------------------------------------------||
G||-----------------------------------------------------------------------------------------------------------------||
D||------999----------101010-------------------101010999777999------999----------101010-------------------1097------||
A||---777---777----777------777----999101010999------------------777---777----777------777----999101010999----109109||
E||000----------000-------------888---------------------------000----------000-------------888----------------------||

   Play Riff:2 5x 2:00-2:50
[ Tab from: http://www.guitartabs.cc/tabs/d/dark_fortress/twilight_tab.html ]
   Clean Tone Riff 2:50-3:02                                         
   Guitar:1
e||-----0-------0------0-------0--------0-------0------0-------0---||
B||----0-0-----0-0----0-0-----0-0------0-0-----0-0----0-0-----0-0--||
G||---0---0---0---0--5---5---7---7----0---0---0---0--5---5---7---7-||
D||--2-------2------5-----5-7-----7--2-------2------5-----5-7-----7||
A||-2-------2------3-------5--------2-------2------3-------5-------||
E||0-------0-----------------------0-------0-----------------------||
 ||Guitar:2 
e||----------------------------------------------------------------||
B||----------------------------------------------------------------||
G||----------------------------------------------------------------||
D||--------------------------------------------------------77777777||
A||2---------------3-------5-----------------------3-------55555555||
E||0-------0-----------------------0-------0-----------------------||

   Riff:5 6x 3:02-3:38               
   Guitar:1                          
e||-----0-------0------0-------0---||
B||----0-0-----0-0----0-0-----0-0--||
G||---0---0---0---0--5---5---7---7-||
D||--2-------2------5-----5-7-----7||
A||-2-------2------3-------5-------||
E||0-------0-----------------------||
 ||
e||--------------------------------||
B||--------------------------------||
G||--------------------------------||
D||----------------5--------7777777||
A||2-2-----2-------3--------5555555||
E||0-0-----0-----------------------||

   Solo 4x 3:39-4:02
   Guitar:1
e||-------------------------------------------------------------------------------------------------------------------------------------||
B||T-P-PT-P-PT-P-PT-P-PT-P-PT-P-PT-P-PT-P-PT-P-PT-P-PT-P-PT-P-PT-P-PT-P-PT-P-PT-P-PT-P-PT-P-PT-P-PT-P-PT-P-PT-P-PT-P-PT-P-P-------------||
G||121191211912119121191211912119121191211914119141191411914119141191411914119141191611916119161191611916119161191611916119-119119119119||
D||-------------------------------------------------------------------------------------------------------------------------------------||
A||-------------------------------------------------------------------------------------------------------------------------------------||
E||-------------------------------------------------------------------------------------------------------------------------------------||
 ||Guitar:2
e||-------------------------------------------------------------------------------------------------------------------------------------||
B||-------------------------------------------------------------------------------------------------------------------------------------||
G||-------------------------------------------------------------------------------------------------------------------------------------||
D||--------------------------------------------------------------------------------5----------------------------------------7-77-7-77-77||
A||2---------------------------------------2---------------------------------------3----------------------------------------5-55-5-55-55||
E||0---------------------------------------0--------------------------------------------------------------------------------------------||

   Play Riff:3 4x 4:02-4:27
   and and end with this
   Both Guitars
E||-||
B||-||
G||-||
D||-||
A||2||
E||0||

Amazing Black Metal Band!
Enjoy This!!
There will b more Dark Fortress Tab with in the week!
Questions\Comments: Email SauronSatan666@Hotmail.com 
   
Comments