Dark Fortress - Pilgrim Of The Nightly Spheres Chords & Tabs

 

Pilgrim Of The Nightly Spheres Chords & Tabs

Dark Fortress Chords & Tabs

Version: 1 Type: Tab 0 ratings
1 star 2 stars 3 stars 4 stars 5 stars
comments

Pilgrim Of The Nightly Spheres Tab

   
Artist:Dark Fortress
Song:Pilgrim Of The Nightly Spheres
Album:Tales From Eternal Dusk
Tab By:Rob Vargo (SauronSatan666@Hotmail.com)


   Listin to the song for timings.

   Riff:1 6x 0:00-0:28
   Guitar:1
e||--------------------------------------------------------||
B||--------------------------------------------------------||
G||--------------------------------------------------------||
D||------999101010------999888------999101010-8888-12121212||
A||---777------------777---------777----------6666-10101010||
E||000------------000---------000--------------------------||
 ||Guitar:2 play these 2x than do same as guitar:1
e||--------------------------------------------------------||
B||--------------------------------------------------------||
G||--------------------------------------------------------||
D||9--------------9-----------9---------------8----12------||
A||7--------------7-----------7---------------6----10------||
E||--------------------------------------------------------||

   Riff:2 6x 0:25-1:05
   Both Guitars
e||------------------------------------------------------------------------||
B||------------------------------------------------------------------------||
G||------------------------------------------------------------------------||
D||------------------------------------------------------------------------||
A||2-------101010101010-2-------10-87-8-2-------101010101010-2-------10-811||
E||0-0-000-121212121212-0-0-000-1210810-0-0-000-121212121212-0-0-000-121013||

   Play Riff:1 4x 1:05-1:24

   Riff:3 8x 1:24-1:49
   Guitar:1
e||----------------------------||
B||----------------------------||
G||-------------------------666||
D||---101010999-------999888---||
A||777---------777-666---------||
E||----------------------------||
 ||Guitar:2
e||----------------------------||
B||----------------------------||
G||----------------------------||
D||999-999-999-999-------------||
A||777-777-777-777-666666666666||
E||----------------444444444444||
[ Tab from: http://www.guitartabs.cc/tabs/d/dark_fortress/pilgrim_of_the_nightly_spheres_tab.html ]
   Riff:4a 2x 1:49-1:55               Riff:4b 2x 1:55-1:08
   Guitar:1
e||---------------------------------||------------------------------------------------------------------||
B||---------------------------------||------------------------------------------------------------------||
G||---------------------------------||------------------------------------------------------------------||
D||999999999999121212121212111111777||------999101010------910------79-------999101010------9109------79||
A||7777777777771010101010109-9-9-555||---777----------10-10-----9--9------777----------10-10-----9---9--||
E||---------------------------------||000------------------------------000------------------------------||
 ||Guitar:2
e||---------------------------------||------------------------------------------------------------------||
B||---------------------------------||------------------------------------------------------------------||
G||---------------------------------||------------------------------------------------------------------||
D||999999999999121212121212111111777||999999999999121212121212111111777999999999999121212121212111111777||
A||7777777777771010101010109-9-9-555||7777777777771010101010109-9-9-5557777777777771010101010109-9-9-555||
E||---------------------------------||------------------------------------------------------------------||

   Play Riff:4a 2x 2:08-2:14
   Play Riff:2  4x 2:14-2:40

   Riff:5a 4x 2:40-3:05
   Guitar:1
e||-------------------------------------------------------------------|
B||-------------------------------------------------------------------|
G||-------------------------------------------------------------------|
D||------------------77-----------------------------------------------|
A||101010101010101010--10999999101010999------------------777777999999|
E||-------------------------------------101010101010101010------------|
 ||Guitar:2
e||-------------------------------------------------------------------|
B||-------------------------------------------------------------------|
G||-------------------------------------------------------------------|
D||999999-999999-777777-777777----------------------------------------|
A||777777-777777-555555-555555-999999-999999101010-101010121212-121212|
E||----------------------------777777-7777778-8-8--8-8-8-101010-101010|

 Riff:5b 2x 3:05-3:18
 Guitar:1
|----------------------------------------------------------------------------||
|----------------------------------------------------------------------------||
|----------------------------------------------------------------------------||
|---------------------7------------------------------------------------------||
|10-101010-101010-1010-109-999-99109----------------------------7-777-779-999||
|-----------------------------------10-101010-101010-101010-1010-------------||
|Guitar:2
|----------------------------------------------------------------------------||
|----------------------------------------------------------------------------||
|----------------------------------------------------------------------------||
|9---9---9---9---7---7---7---7-----------------------------------------------||
|7-777-777-777-775-555-555-555-559---9---9---9---10-----10-----12-----12-----||
|--------------------------------7-777-777-777-778--8-8-8--8-8-10-101010-1010||


   Play Riff:5a 4x 3:05-3:43
   Play Riff:2  4x 3:43-4:08

   Ending 4:08
E||-||
B||-||
G||-||
D||-||
A||2||
E||0||

Theres another awesome song off Dark Fortress' first Album
Enjoy This!!
There will be More Dark Fortress Tab coming this week!
Questions\Comments: Email SauronSatan666@Hotmail.com
Comments