Darius - Colour Blind Chords & Tabs

 

Colour Blind Chords & Tabs

Darius Chords & Tabs

Version: 1 Type: Tab 1 rating
1 star 2 stars 3 stars 4 stars 5 stars
comments

Colour Blind Tab

Right I worked tjis ut and started sending it to the people that asked for it but loads of
people have asked for it so I thought I would post it.



-----------0---0------------------------------------0--------------------
-----------3----------3-----------------------0----------0--------------
-----------2----------------2-----------------0----------------0--------
---0----------------------------------------------------------------------
--------------------------------------------------------------------------
-------------------------------------3------------------------------------

-----------0---0------------------------------------0--------------------
-----------3----------3-----------------------0----------0--------------
-----------2----------------2-----------------0----------------0--------
---0----------------------------------------------------------------------
--------------------------------------------------------------------------
-------------------------------------3------------------------------------

-----------0---0------------------------------------0--------------------
-----------3----------3-----------------------0----------0--------------
-----------2----------------2-----------------0----------------0--------
---0----------------------------------------------------------------------
--------------------------------------------------------------------------
-------------------------------------3------------------------------------
[ Tab from: http://www.guitartabs.cc/tabs/d/darius/colour_blind_tab.html ]
-----------0---0------------------------------------0--------------------
-----------3----------3-----------------------0----------0--------------
-----------2----------------2-----------------0----------------0--------
---0----------------------------------------------------------------------
--------------------------------------------------------------------------
-------------------------------------3------------------------------------

do all that ^^^^^^^ again

------------------- 0------0---------------------------0-----------------
------------0------0------------0---------------------0-----------------
-------------------------------------------------0-----0--------------0-
--------4------------------------------------2---------------------------
---2----------------------------------------------------------------------
-----------------------------------------0--------------------------------

------------------- 0------0---------------------------0-----------------
------------0------0------------0---------------------0-----------------
-------------------------------------------------0-----0--------------0-
--------4------------------------------------2---------------------------
---2----------------------------------------------------------------------
-----------------------------------------0--------------------------------

-----------0---0------------------------------------0--------------------
-----------3----------3-----------------------0----------0--------------
-----------2----------------2-----------------0----------------0--------
---0----------------------------------------------------------------------
--------------------------------------------------------------------------
-------------------------------------3------------------------------------

-----------0---0------------------------------------0--------------------
-----------3----------3-----------------------0----------0--------------
-----------2----------------2-----------------0----------------0--------
---0----------------------------------------------------------------------
--------------------------------------------------------------------------
-------------------------------------3------------------------------------

right thats all i have so far i think it sounds like it and is easy to play so have fun  -
Tom
Comments