Dare Devil Sunday - Cool Guy Chords & Tabs

 

Cool Guy Chords & Tabs

Dare Devil Sunday Chords & Tabs

Version: 1 Type: Tab 0 ratings
1 star 2 stars 3 stars 4 stars 5 stars
comments

Cool Guy Tab

Dare Devil Sunday Guitar Tabs
Go to daredevilsunday.com and check out this new and upcoming band from redding
california! Support your local band thanx!



(Intro)
      e--------------------------------------------------
      b--------------------------------------------------
      g----777---------777----------777-------------77777
      D----777---------777----------777-------------77777
      A----555---------555----------555-------------55555
      E-------5-7-5-2------5-7-5-2------5-7-5-2----------

(Verse 1)
      e--------------------------------------------------
      b--------------------------------------------------
      g---7------------7---------------------------------
      D---7--7--9------7--7--5---------------------------
      A---5--7--9------5--7--5---------------------------
      E------5--7---------5--3---------------------------
[ Tab from: http://www.guitartabs.cc/tabs/d/dare_devil_sunday/cool_guy_tab.html ]
(Chorus)
      e-------------------------------------------------
      b-------------------------------------------------
      g------7----9-------------------------------------
      D------7----9----5--------------------------------
      A------5----7----5--------------------------------
      E----------------3--------------------------------

(Verse 2)
      e-----------------------------------------------------------
      b-------------------------------- ("you get all the chicks")              
      g------7----------7----------------7----------7--------------
      D------7--7---9---7---7---9---5----7---7--9---7---7---5------
      A------5--7---9---5---7---9---5----5---7--9---5---7---5------
      E---------5---7-------5---7---3--------5--7-------5---3------

(Inturelude to Chorus)
   same as chorus last line of 2nd verse is the chorus


*order*

intro
verse 1
chorus
intro
verse 2 
chorus
intro
Comments