Dare Devil Sunday - Cool Guy Chords & Tabs

 

Cool Guy Chords & Tabs

Dare Devil Sunday Chords & Tabs

Version: 1 Type: Bass Tab 0 ratings
1 star 2 stars 3 stars 4 stars 5 stars
comments

Cool Guy Bass Tab

(Intro)
G|---------------------------------------------------------------------------|
D|---------------------------------------------------------------------------|
A|----5-------------5-----------5---------------55555------------------------|
E|--------5-7-5-2-----5-7-5-2-----5-7-5-2------------------------------------|
[ Tab from: http://www.guitartabs.cc/tabs/d/dare_devil_sunday/cool_guy_btab.html ]
(Verse 1)
G|--------------------------------------
D|--------------------------------------        <----Repeat 2x
A|-------5----------------5-------------          
E|------------5------7---------5----3---

(Chorus)
G|-----------------------
D|-----------------------      <-----Repeat 4x        
A|--------5---7----------
E|----------------3------

(Verse 2)
G|---------------------------------------------------------------------------|
D|--------------------------------------("you get all the chicks")-----------|
A|----5--------------5----------------5---------5----------5---7-------------|
E|-------5---7---3-------5---7---3-------5--7------5--3-------------3--------|

Intro
verse 1
chorus
intro
verse 2
chorus
intro
Comments