Daphne Loves Derby - Simple Starving To Be Safe Chords & Tabs

 

Simple Starving To Be Safe Chords & Tabs

Daphne Loves Derby Chords & Tabs

Version: 4 Type: Tab 0 ratings
1 star 2 stars 3 stars 4 stars 5 stars
comments

Simple Starving To Be Safe Tab

SIMPLE STARVNG TO BE SAFE by Daphne Loves Derby
Tabbed by Hannah J. N.

[Capo on 4th fret]
INTRO:
e|-------0------------3---------0------0-----0---------------------|
B|-----1------------0---0--------0-------0-----0-------------------|
G|---2---------0h1-------0--------0--------0----0------------------|
D|-3---------3-----------------------------------------------------|
A|----------------------------3--------3---------------------------|
E|-----------------------------------------------------------------|

e|-------0-----------3--------------------0----------------0-------|
B|-----1----------0----0---------------0----0------------0---0-----|
G|---2--------0h1-------0----------0----------0---------0------0---|
D|-3--------3-------------------0h2---------------0h2--------------|
A|----------------------------3------------------3-----------------|
E|-----------------------------------------------------------------|

VERSE (repeat 4x):
e|---0---0---3----3----------0-----------0-------------------------|
B|---1---1---0----1-----0----0---------0---0-----------------------|
G|----------(2)--(2)----0------------0-------0---------------------|
D|-3---3---3----3-----------------0h2------------------------------|
A|--------------------3----3----3----------------------------------|
E|-----------------------------------------------------------------|

[ Tab from: http://www.guitartabs.cc/tabs/d/daphne_loves_derby/simple_starving_to_be_safe_tab_ver_4.html ]
CHORUS (repeat 2x - this part is probably wrong):
e|---0----0-----0----0--------0-----0--------------------0----2----0h2---2------------|
B|---0----0-----0----0--------1-----1----0h1---1---------1----3-------3---3-----------|
G|------------------------------------------0---0---0---------2--------2---2----------|
D|-2----2-----0------------------------------2---2-----0----0---0---------------------|
A|-----------------2-----2--0-----0----0----------------------------------------------|
E|------------------------------------------------------------------------------------|

e|-----3----3--------------------------------------------------------------------------|
B|-----3----3--------------------------------------------------------------------------|
G|---0----0----0-----------------------------------------------------------------------|
D|-0---------------3--2--0-------------------------------------------------------------|
A|--------------------------3--2--0----------------------------------------------------|
E|-----------------------------------3--0----------------------------------------------|


[repeat verse & chorus]


ACOUSTIC MINI SOLO THING (repeat 2x):
e|-0----3---------0----|
B|-1----0----0----0----|
G|-----------0---------|
D|-3----3--------------|
A|-----------3----3----|
E|---------------------|


[repeat verse @ chorus]
[repeat intro]

*This tab is simplified.; Listen to the song to hear how Kenny actualy plays the chords;
it's probably the same fingerings if not similar
Comments