Daphne Loves Derby - Simple Starving To Be Safe Chords & Tabs

 

Simple Starving To Be Safe Chords & Tabs

Daphne Loves Derby Chords & Tabs

Version: 3 Type: Tab 0 ratings
1 star 2 stars 3 stars 4 stars 5 stars
comments

Simple Starving To Be Safe Tab

This is my first tab so if it looks messy or something im sorry ^^ 

The intro on the other tabs for this song didn't sound right at all. So here's my contribution.



SIMPLE STARVNG TO BE SAFE 
by Daphne Loves Derby

Tabbed by Hannah J. N.
[ Tab from: http://www.guitartabs.cc/tabs/d/daphne_loves_derby/simple_starving_to_be_safe_tab_ver_3.html ]
[Capo on 4th fret]
INTRO:
E -------0-----------3---------0--------0-----0------|
B -----1-----------0---0---------0--------0-----0----|
G ---2---------0h1-------0---------0--------0-----0--|
D -3---------3---------------------------------------|
A ---------------------------3--------3--------------|
e ---------------------------------------------------|

E -------0-----------3------------------0-----------------0-----|
B -----1-----------0---0--------------0---0-------------0---0---|
G ---2--------0h1--------0----------0-------0---------0-------0-|
D -3--------3-------------------0h2---------------0h2-----------|
A ----------------------------3------------------3--------------|
e --------------------------------------------------------------|
Comments