Daphne Loves Derby - Simple Starving To Be Safe Chords & Tabs

 

Simple Starving To Be Safe Chords & Tabs

Daphne Loves Derby Chords & Tabs

Version: 1 Type: Tab 0 ratings
1 star 2 stars 3 stars 4 stars 5 stars
comments

Simple Starving To Be Safe Tab

Band: Daphine Loves Derby
Song: Simple, Starving To Be Safe
Album: Demo
Tabber: Calum (Afirock74@hotmail.com)
(capo on 4th)

[ Tab from: http://www.guitartabs.cc/tabs/d/daphne_loves_derby/simple_starving_to_be_safe_tab.html ]
Intro:
E:----0---------3-------0----0----0---------|
B:---1-----0/1----1----------1----1----1----|
G:--2-----2/-------------0----0-0--0--------|
D:-3------3---------3-2----2----2-----------|
A:------------------------------------------|
e:------------------------------------------|

Verse:
E:-0---3--0----|
B:-1---1--1----|
G:-2---2--0----|
D:-3---3--2----|
A:--------3----|
e:-------------|

Chorus:
E:-0---0---2---3---------------|
B:-0---1---1---0---------------|
G:-1---2---2---0---------------|
D:-0---2---0---0---3-2-0-------|
A:-2---0-------2---------3-2---|
e:-0---0-------3-------------3-|

Cheers
Comments