Daphne Loves Derby - Ergo Propter Chords & Tabs

 

Ergo Propter Chords & Tabs

Daphne Loves Derby Chords & Tabs

Version: 1 Type: Tab 0 ratings
1 star 2 stars 3 stars 4 stars 5 stars
comments

Ergo Propter Tab

------------------------------------------------------------
	"Ergo Propter" - Daphne Loves Derby
------------------------------------------------------------

Tabbed by: Justin RiRaY
Email: Pakman7JR@hotmail.com       AIM: BeatPwner

Tuning: eBGDAE (CAPO 3rd FRET)
        tabs based on capo as 0 fret
[ Tab from: http://www.guitartabs.cc/tabs/d/daphne_loves_derby/ergo_propter_tab.html ]
     Verse
 
e|--0---0---0---0----0---0---0--0--------------------------|
B|--0---0---0---1----0---0---0--0--------------------------|
G|--1---1---4---0----2---4---1--1--------------------------|
D|--2---0---2---2----2---4---2--2--------------------------|
A|--2---2---4---3----0---2---2--2--------------------------|
E|--0---0---0---0----0---0---0--0--------------------------|


     Bridge

e|--0x-0x-0x-0x--0x-0x-0x-0x---0x-0x-0x-0x--0x-0x-0x-0x----|
B|--0x-0x-0x-0x--0x-0x-0x-0x---0x-0x-0x-0x--0x-0x-0x-0x----|
G|--2x-2x-2x-2x--4x-4x-4x-4x---2x-2x-2x-2x--4x-4x-4x-4x----|
D|--2x-2x-2x-2x--4x-4x-4x-4x---2x-2x-2x-2x--4x-4x-4x-4x----|
A|--0x-0x-0x-0x--2x-2x-2x-2x---0x-0x-0x-0x--2x-2x-2x-2x----|
E|--0x-0x-0x-0x--0x-0x-0x-0x---0x-0x-0x-0x--0x-0x-0x-0x----|


| x  =  mute (stop)
------------------------------------------------------------
Comments