Daphne Loves Derby - Deserts Eating Oceans Chords & Tabs

 

Deserts Eating Oceans Chords & Tabs

Daphne Loves Derby Chords & Tabs

Version: 1 Type: Tab 0 ratings
1 star 2 stars 3 stars 4 stars 5 stars
comments

Deserts Eating Oceans Tab

------------------------------------------------------------
    "Deserts Eating Oceans" - Daphne Loves Derby
                    INTRO only
------------------------------------------------------------
Tabbed by: Justin RiRaY
Email: Pakman7JR@hotmail.com       AIM: BeatPwner

Tuning: eBGDAE

[ Tab from: http://www.guitartabs.cc/tabs/d/daphne_loves_derby/deserts_eating_oceans_tab.html ]
     INTRO
 
e|---------------------0-----------------------------------|
B|-----0----- ---0-------0---------------------------------|
G|-------0--- -----0-------0-------------------------------|
D|---------2- -------2-------------------------------------|
A|--3-------- -3-------------------------------------------|
E|---------------------------------------------------------|
 
e|-------------0--------------0----------------------------|
B|-----3---------3--------------1--------------------------|
G|-------0---------2--------2-----1------------------------|
D|---------2----------2h3-3---------3----------------------|
A|--3------------------------------------------------------|
E|---------------------------------------------------------|
 
e|--------0--------------------0---------------------------|
B|------1----1------------1-0----0-------------------------|
G|----2--------1-------------------------------------------|
D|--3------------3------0----------------------------------|
A|------------------3/5------------------------------------|
E|---------------------------------------------------------|
 
e|-----------0---------------------------------------------|
B|---------1---1-----------0-------------------------------|
G|-----------------------0---------------------------------|
D|-------0-------------2-------2-h3p2----------------------|
A|-----3---------3---3-------3-----------------------------|
E|---4-----------------------------------------------------|
 
e|-------------------------------0-------------------------|
B|------0-------------- ---0-------0-----------------------|
G|--------0------------ -----0-------0---------------------|
D|----------2---2-h3p2- -------2---------------------------|
A|----3-------3-------- -3---------------------------------|
E|---------------------------------------------------------|
 
e|-------------0--------------0----------------------------|
B|-----3---------3--------------1--------------------------|
G|-------0---------2--------2-----1------------------------|
D|---------2----------2h3-3---------3----------------------|
A|--3------------------------------------------------------|
E|---------------------------------------------------------|
 
e|--------0--------------------0---------------------------|
B|------1----1------------1-0----0-------------------------|
G|----2--------1-------------------------------------------|
D|--3------------3------0----------------------------------|
A|------------------3/5------------------------------------|
E|---------------------------------------------------------|
 
e|-----------0---------------------------------------------|
B|---------1-----------------------3/5\3-0-----------------|
G|-----------------------------------------4/5\4-----------|
D|-------0-------------------------------------------------|
A|-----3---------------------------------------------------|
E|---4-----------------------------------------------------|

i've been trying to tab the rest but its really hard, too 
many notes being hit at the same time. I can't hear them all.
Comments