Danzig - Twist Of Cain Chords & Tabs

 

Twist Of Cain Chords & Tabs

Danzig Chords & Tabs

Version: 2 Type: Tab 1 rating
1 star 2 stars 3 stars 4 stars 5 stars
comments

Twist Of Cain Tab

Yo peeps this is Gurv and here is Danzigs Twist of Cain, Sounds better when played On Distortion 
If u have any concerns or ?s email me at Set120@aol.com



E------------------------------------------------------------
B------------------------------------------------------------
G------------------------------------------------------------
D----------------------------------------------------8-8-8---
A---6-7-0-6-0-3-0-0--7-0-6-0-3-0-0--7-0-6-0-3-0-0-0--6-6-6---
E------------------------------------------------------------
           Do this 4 times 

E------------------------------------------------------------
B------------------------------------------------------------
G------------------------------------------------------------
D---2-2-2-2--5-5-5--2-2-2-2--5-5-5--2-2-2-2--5-5-5--8-8-8-8--
A---0-0-0-0--3-3-3--0-0-0-0--3-3-3--0-0-0-0--3-3-3--6-6-6-6--
E------------------------------------------------------------
          Palm Mute all of this except for D8, And A6

E------------------------------------------------------------
B------------------------------------------------------------
G------------------------------------------------------------
D----------------------------------------------------8-8-8---
A---6-7-0-6-0-3-0-0--7-0-6-0-3-0-0--7-0-6-0-3-0-0-0--6-6-6---
E------------------------------------------------------------
        Do this again 4 more times

E------------------------------------------------------------
B------------------------------------------------------------
G------------------------------------------------------------
D---2-2-2-2--5-5-5--2-2-2-2--5-5-5--2-2-2-2--5-5-5--8-8-8-8--
A---0-0-0-0--3-3-3--0-0-0-0--3-3-3--0-0-0-0--3-3-3--6-6-6-6--
E------------------------------------------------------------
      Palm Mute this again all of this except for D8 and A6

[ Tab from: http://www.guitartabs.cc/tabs/d/danzig/twist_of_cain_tab_ver_2.html ]
E------------------------------------------------------------
B------------------------------------------------------------
G------------------------------------------------------------
D----------------------------------------------------8-8-8---
A---6-7-0-6-0-3-0-0--7-0-6-0-3-0-0--7-0-6-0-3-0-0-0--6-6-6---
E------------------------------------------------------------
           Do this 4 times again

E------------------------
B------------------------
G------------------------
D---2---------8--5-5--7-7
A---0-3-0--0--6--3-3--5-5
E---------3--------------
   Do this 4 times

E------------------------------------------------------------
B------------------------------------------------------------
G------------------------------------------------------------
D----------------------------------------------------8-8-8---
A---6-7-0-6-0-3-0-0--7-0-6-0-3-0-0--7-0-6-0-3-0-0-0--6-6-6---
E------------------------------------------------------------
      4 more times

E------------------------------------------------------------
B------------------------------------------------------------
G------------------------------------------------------------
D---2-2-2-2--5-5-5--2-2-2-2--5-5-5--2-2-2-2--5-5-5--8-8-8-8--
A---0-0-0-0--3-3-3--0-0-0-0--3-3-3--0-0-0-0--3-3-3--6-6-6-6--
E------------------------------------------------------------
      Palm Mute this again all of this except for D8 and A6
E------------------------------------------------------------
B------------------------------------------------------------
G------------------------------------------------------------
D----------------------------------------------------8-8-8---
A---6-7-0-6-0-3-0-0--7-0-6-0-3-0-0--7-0-6-0-3-0-0-0--6-6-6---
E------------------------------------------------------------
      4 more times

E------------------------
B------------------------
G------------------------
D---2---------8--5-5--7-7
A---0-3-0--0--6--3-3--5-5
E---------3--------------
   Do this 4 more times and This is it

The Last Part is just Bells Ringing 



This Tab is very Accurate, partially transcribed by zach w
 
Comments