Danzig - Soul On Fire Chords & Tabs

 

Soul On Fire Chords & Tabs

Danzig Chords & Tabs

Version: 2 Type: Tab 0 ratings
1 star 2 stars 3 stars 4 stars 5 stars
comments

Soul On Fire Tab

   
                    D  A  N  Z  I  G
                 S O U L  O N  F I R E
                      DANZIG (1988)

Intro (piano arranged for guitar):
-----------------------------------------------------|
-----------------------------------------------------|
--4-----4-----4----7----2----7----4---------2----7---|
4-------------------------------------2--------------|
--2-----2-----2----5----0----5----2---2-----0----5---|
--------------------------------------0--------------|

Verse
--------------------------------------------------------------|
--------------------------------------------------------------|
--------------------------------------------------------------|
-4---------------7---------------2---------------7------7--7--|
-2--2-2-2-2-2-2--5--5-5-5-5-5-5--0--0-0-0-0-0-0--5--5-5-5--5--|
--------------------------------------------------------------|
[ Tab from: http://www.guitartabs.cc/tabs/d/danzig/soul_on_fire_tab_ver_2.html ]
----------------------------------------------------------------|
----------------------------------------------------------------|
----------------------------------------------------------------|
-4-------------------------------2---------------7------7--7----|
-2--2-2-2-2-2-2---2--------------0--0-0-0-0-0-0--5--5-5-5--5----|
------------------0---------------------------------------------|

Chorus
----------------------------------|
----------------------------------|
----------------------------------|
-4-4--7-7--9-9----------------7---|
-2-2--5-5--7-7-------5--5-5---5---|
---------------------3--3-3-------|

Solo
-------------|-------------|-------------|-------------------|
-------------|-------------|-------------|-------------------|
-------------|-------------|-------------|-------------------|
-----x15-----|--x8---------|-----x7------|-------------7-----|
--4--4-4--4--|--5--5-5--5--|--4--4-4--4--|----5--------5-----|
--2--2-2--2--|--3--3-3--3--|--2--2-2--2--|----3--------------|

Outro
------------|-----------------------------------|
------------|-----------------------------------|
------------|-----------------------------------|
-2----------|----7------------------------------|
-2----------|-5--5----77777777777777777777\-----|
-0-00000000-|-3---------------------------------|

/metal_up_your_ass@2die4.com
Comments