Danzig - Netherbound Chords & Tabs

 

Netherbound Chords & Tabs

Danzig Chords & Tabs

Version: 1 Type: Tab 0 ratings
1 star 2 stars 3 stars 4 stars 5 stars
comments

Netherbound Tab

   
DANZIG
"NetherBound"
From the Circle of Snakes album.
Tabbed by Jake Strange.
Tuning, lo to hi: C F Bb Eb G C

part 1:
 c|----------------||---------------|
 G|----------------||---------------|
Eb|----------------||--7-----5------|
Bb|--2-----------2-||--7-----5------|
 F|--2-----------2-||--5-----3------|
 C|--0--00---3---0-||---------------||
[ Tab from: http://www.guitartabs.cc/tabs/d/danzig/netherbound_tab.html ]
Part 2:
 c|----------------------------------|
 G|----------------------------------|
Eb|----------------------------------|
Bb|--2---3-----------2-2----5--3-----|
 F|--2---3--(pause)--2-2----5--3-----|
 C|--0---1-----------0-0----3--1-----|

Part 3:
 c|----------------------------------|
 G|----------------------------------|
Eb|----------------------7------5----|
Bb|--2---2------------7---------5----|
 F|--2---2---------5------------3----|
 C|--0---0---------------------------|

Part 3 has varied ways of playing it. One of
the other ways is combining it with the 1st
measure of "part 1"
This is all I know of this song.
Comments